Big Dismal - Just The Same Chords & Tabs

 

Just The Same Chords & Tabs

Big Dismal Chords & Tabs

Version: 1 Type: Tab 0 ratings
1 star 2 stars 3 stars 4 stars 5 stars
comments

Just The Same Tab

   
-------------------------------------------------------------------------------
			Just The Same - by Big Dismal
-------------------------------------------------------------------------------

Tabbed by: DarkCloud!
Email: hpgordon@hotmail.com
[ Tab from: http://www.guitartabs.cc/tabs/b/big_dismal/just_the_same_tab.html ]
Tuning: 1/2 step down
Intro: pick high to low then repeat D 
	D                          D
e|---2---3---------2----------------------2---3-------|
B|--------3-------------3---- repeat--D---------3-----|
G|---2--------------2---------------------2-----------|
D|----------------------------------------------------|
A|----------------------------------------------------|
E|----------------------------------------------------|
Verse: strum up/down (jingle-jangle)
        D           		                         G 
e|----2---3-off and on-----------3--------------------|
B|--------3-------------------------3-----------------|
G|----2-----------------------------------------------|
D|----------------------------------------------------|
A|-------------------------------2--------------------|
E|-----------------------------------3----------------|

"Did I let you down?"
       E min	                    C 
e|-----------------------------------------------------|
B|-----------------1--------3-strum then add-----------|
G|-----------------------------------------------------|
D|-----2--------------2--------------------------------|
A|------2----------------3-----------------------------|
E|-----------------------------------------------------|

Lot's of G, listening for strumming, high to slow strum on "Did I let you down?" 
Back to verse, D, G, D, G, ending on G 
I'm not sure if it's called Dsus or Gmaj7 (1st tab) but that is the fingering. 

| /  slide up
| \  slide down
| h  hammer-on
| p  pull-off
| ~  vibrato
| +  harmonic
| x  Mute note
Comments