Big D And The Kids Table - Chicago Chords & Tabs

 

Chicago Chords & Tabs

Big D And The Kids Table Chords & Tabs

Version: 1 Type: Tab

Chicago Tab

   
-------------------------------------------------------------------------------
			     CHICAGO - Big D and the Kids Table
-------------------------------------------------------------------------------
Tabbed by: skakid9090
Email: skakid9090@gmail.com

Tuning: STANDARD

e|---------------------------------------------------------------------------|
B|---------------------------------------------------------------------------|
G|---------------------------------------------------------------------------|
D|---/6---4---2---1-----/4---1-----------------------------------------------|
A|-------------------4-----------4--4----2-----------------------------------|
E|---------------------------------------------------------------------------|


e|---------------------------------------------------------------------------|
B|---------------------------------------------------------------------------|
G|---------------------------------------------------------------------------|
D|---/6---4---2---1-----/4---1---2---2---------------------------------------|
A|-------------------4-------------------------------------------------------|
E|---------------------------------------------------------------------------|
[ Tab from: http://www.guitartabs.cc/tabs/b/big_d_and_the_kids_table/chicago_tab.html ]
Way #2(oooo!)

e|--/5-----------------------------------------------------------------------|
B|-------8----6---5------/8---5----------------------------------------------|
G|--------------------7-----------7---7----5---------------------------------|
D|---------------------------------------------------------------------------|
A|---------------------------------------------------------------------------|
E|---------------------------------------------------------------------------|

e|--/5-----------------------------------------------------------------------|
B|-------8----6---5------/8---5----------------------------------------------|
G|--------------------7-----------6---6--------------------------------------|
D|---------------------------------------------------------------------------|
A|---------------------------------------------------------------------------|
E|---------------------------------------------------------------------------|

pretty cool song by my favorite band. i dont feel like tabbing out the rest so heres the intro

| /  slide up
| \  slide down
| h  hammer-on
| p  pull-off
| ~  vibrato
| +  harmonic
| x  Mute note
===============================================================================