Big Casino - Mistreated Chords & Tabs

 

Mistreated Chords & Tabs

Big Casino Chords & Tabs

Version: 1 Type: Tab 0 ratings
1 star 2 stars 3 stars 4 stars 5 stars
comments

Mistreated Tab

i actually sat down and figured out some of this song. this is just the main verse part. the chorus will come as soon as i figure it out. all distortion and standard tuning will suffice.

(A) gtr.1 rythym (these three chords needs to be stummed out, i didnt show the strum pattern for time sake but listen to the song and you will figure it out) 
e--------------------------- 
B--------------------------- 
G-9-9-9-9--5-5-5-5-=4-4-4-4- 
D-9-9-9-9--5-5-5-5--4-4-4-4- 
A-7-7-7-7--3-3-3-3--2-2-2-2- 
E--------------------------- 
[ Tab from: http://www.guitartabs.cc/tabs/b/big_casino/mistreated_tab.html ]
(B) gtr.2 lead 
e-------------------------- 
B---5---------------------- 
G-3---3-4-4-4-4------------ 
D---------------3-3-4-4-4-4 
A-------------------------- 
E-------------------------- 

(C) gtr.2 lead 
e-------------------------- 
B---5---------------------- 
G-3---3-4-4-4-4------------ 
D---------------4-4-3-3-3-3 
A-------------------------- 
E-------------------------- 

for every one time you play the rythym part you play one of the lead parts just alternate back and forth between the two 
(play the "a" riff along with the "b" riff, start over with the "a" rif and play it with the "c" rif this time, etc.....). more to come. 
and to all the beginners, it is well worth it when you tab out music yourselfs. thanks to dadfad for the inspiration to figure this out myself.
Comments