Big Bro - Nu Flow Chords & Tabs

 

Nu Flow Chords & Tabs

Big Bro Chords & Tabs

Version: 1 Type: Bass Tab 0 ratings
1 star 2 stars 3 stars 4 stars 5 stars
comments

Nu Flow Bass Tab

-------------------NU FLOW-BIG BRO-------------

[ Tab from: http://www.guitartabs.cc/tabs/b/big_bro/nu_flow_btab.html ]
THIS BASIC RIFF IS PLAYED THROUGHOUT THE WHOLE SONG
d---------------------------------------------------|
g---------------------------------------------------|
a-0------3-2---0-0---3-2---0-0---3-2--0-0-----------|
e-------------------------------------------3-3--1-1|

d---------------------------------------------------|
g---------------------------------------------------|
a------------------------0-0------------------------|
e-1-1---1-1---1-1---3-3-----------------------------|
Comments