Big Bad Voodoo Daddy - You And Me And The Bottle Makes Three Chords & Tabs

 

You And Me And The Bottle Makes Three Chords & Tabs

Big Bad Voodoo Daddy Chords & Tabs

Version: 2 Type: Bass Tab 0 ratings
1 star 2 stars 3 stars 4 stars 5 stars
comments

You And Me And The Bottle Makes Three Bass Tab

  BTAB: You And Me and The Bottle Makes Three 
Artist: Big Bad Voodoo Daddy 
 Album: Big Bad Voodoo Daddy 
Author: Rattman (jratt0@hotmail.com) 
  
I think the pre-chorus is a little off in this song, they have an upright bass 
player which makes it hard to hear, I think it goes lower than an electric 
too. If you have some corrections let us know! 
  

The horn solos and piano solos are verse/pre-chorus progressions. 
  
Verse: 
      x3 
G---------|--3-1-0----------- 
D---0-1-3-|--------4-3-1-0--- 
A-1-------|------------------3- 
E---------|------------------ 
[ Tab from: http://www.guitartabs.cc/tabs/b/big_bad_voodoo_daddy/you_and_me_and_the_bottle_makes_three_btab_ver_2.html ]
Pre-Chorus: 
G-------------------------------------1-2-4---1-2-4-5-5-5-5-6- 
D-------------------1-2-4---1-2-4-2-------2----------------- 
A--1-2-4---1-2-4-2-------2--------------------------------- 
E-2-------2------------------------------------------------- 
  

Outro: 
"hey bartender..." 
G------------------------------------------------------------------------ 
D------------------------------------------------------------------------ 
A-1---1---1-0---0-*-1---------------------------------------------------- 
E---0---0-----1---------------------------------------------------------- 
  
  
  
Comments