Biffy Clyro - Wave Upon Wave Upon Wave Chords & Tabs

 

Wave Upon Wave Upon Wave Chords & Tabs

Biffy Clyro Chords & Tabs

Version: 1 Type: Tab 0 ratings
1 star 2 stars 3 stars 4 stars 5 stars
comments

Wave Upon Wave Upon Wave Tab

   
Wave Upon Wave Upon Wave

This is my fave track on 'Infinity Land' so i thought i'd also put up some tabs for it!! 
they are ok. Coz they worked for me!

e]-----------------------------------------------------------------------|
b]-----------------------------------------------------------------------|
g]-----------------------------------------------------------------------|
d]-----------------------------------------------------------------------|
a]-3-3-3-3-3-3------3-3-3-3-3-3------5-5-5-5-5-5--3-3-3--7-7-7-7-7-7---7-|
d]-0-0-0-0-0-0------0-0-0-0-0-0------3-3-3-3-3-3--2-2-2--5-5-5-5-5-5---5-|

e]-----------------------------------------------------------------------|
b]-----------------------------------------------------------------------|
g]-----------------------------------------------------------------------|
d]-----------------------------------------------------------------------|
a]-3-3-3-3-3-3-3-3--3-3-3-3-3-3-3-3--5-5-5-5-5-5--3-3-3--7-7-7-7-7-8-8-8-|
d]-0-0-0-0-0-0-0-0--0-0-0-0-0-0-0-0--3-3-3-3-3-3--2-2-2--5-5-5-5-5-5-5-5-| x3

Bridge

e]-------------------------|
b]-------------------------|
g]-10-10-10-10-10-10-10-10-|
d]-8--8--8--8--8--9--9--9--|
a]-8--8--8--8--8--9--9--9--|
d]-8--8--8--8--8--9--9--9--|

Chorus Part 1 (tremelo picking)

e]--------Repeat-as-necessary----------|---------|
b]-------------------------------------|---------|
g]-5-5-5-5-5-5-5-5-5-5-5-5-5-5-5-5-5-5-|---------|
d]-------------------------------------|-6-6-5---|
a]-3-3-3-3-3-3-3-3-3-3-3-3-3-3-3-3-3-3-|-6-6-5---|
d]-------------------------------------|-6-6-5---|

Repeat

Chorus Part 2

e]-----------------------|
b]-----------------------|
g]-----------------------|
d]-2-2-0-3-3-0-2-2-0-5-5-|
a]-2-2-0-3-3-0-2-2-0-5-5-|
d]-2-2-0-3-3-0-2-2-0-5-5-|

Post chorus

e]-----------------------|
b]-----------------------|
g]----9/11\9-----11-9-11-|
d]--------------0--0-0---|
a]-----------------------|
d]-0----------9----------| x2

e]-------------------------------------------|
b]-------------------------------------------|
g]----9/11\9-----11-9-----6-x-x--7----6----9-|
d]--------------0--0--11--4-x-x--5----4----7-|
a]------------------------4-x-x--5----4----7-|
d]-0----------9-----------4-x-x--5----4----7-|

2nd verse

e]-----------------------------------------------------------------------|
b]-----------------------------------------------------------------------|
g]-----------------------------------------------------------------------|
d]-----------------------------------------------------------------------|
a]-3-3-3-3-3-3-3-3--3-3-3-3-3-3-3-3--5-5-5-5-5-5--3-3-3--7-7-7-7-7-8-8-8-|
d]-0-0-0-0-0-0-0-0--0-0-0-0-0-0-0-0--3-3-3-3-3-3--2-2-2--5-5-5-5-5-5-5-5-| x3

Bridge

e]-------------------------|
b]-------------------------|
g]-10-10-10-10-10-10-10-10-|
d]-8--8--8--8--8--9--9--9--|
a]-8--8--8--8--8--9--9--9--|
d]-8--8--8--8--8--9--9--9--|

Chorus Part 1 (tremelo picking)

e]--------Repeat-as-nessecary----------|---------|
b]-------------------------------------|---------|
g]-5-5-5-5-5-5-5-5-5-5-5-5-5-5-5-5-5-5-|---------|
d]-------------------------------------|-6-6-5---|
a]-3-3-3-3-3-3-3-3-3-3-3-3-3-3-3-3-3-3-|-6-6-5---|
d]-------------------------------------|-6-6-5---|

Repeat

Chorus Part 2

e]-----------------------|
b]-----------------------|
g]-----------------------|
d]-2-2-0-3-3-0-2-2-0-2-2-|
a]-2-2-0-3-3-0-2-2-0-2-2-|
d]-2-2-0-3-3-0-2-2-0-2-2-|

e]-9----------12-13--18\-|
b]---10------------------|
g]------12-10------------|
d]-----------------------|
a]-----------------------|
d]-----------------------|

e]---------------------------------------------|
b]---------------------------------------------|
g]---------------------------------------------|
d]-2-2-0-3-3-0-2-2-0-2-2-2-2-0-3-3-0-2-2-0-5-5-|
a]-2-2-0-3-3-0-2-2-0-2-2-2-2-0-3-3-0-2-2-0-5-5-|
d]-2-2-0-3-3-0-2-2-0-2-2-2-2-0-3-3-0-2-2-0-5-5-|

3rd verse

e]-0------------------0------------------0----------------------0--0--0--0--\-|
b]-1------------------3------------------12--------------13-12--15-15-15-15-\-|
g]-2------------------4------------------12--------------12-12--12-12-12-12-\-|
d]----------------------------------------------------------------------------|
a]----------------------------------------------------------------------------|
d]----------------------------------------------------------------------------|

Repeat

Solo
[ Tab from: http://www.guitartabs.cc/tabs/b/biffy_clyro/wave_upon_wave_upon_wave_tab.html ]
e]---0---0---0---0---0---0---0---0---0---0---0---0---0---0---0---0-|
b]-5---5--\3---3--\1---1--/3---3--/6---6--\5---5--\3---3--/5---5---|
g]-----------------------------------------------------------------|
d]-----------------------------------------------------------------|
a]-----------------------------------------------------------------|
d]-----------------------------------------------------------------|

e]-----0----0----0----0----0----0----0----0--0--0------------------\-|
b]-/12---12--\10---10--\8----8---/10---10----13-12-12---12-12-12-12\-|
g]-------------------------------------------12-12-12---12-12-12-12\-|
d]-------------------------------------------------12---12-12-12-12\-|
a]-------------------------------------------------------------------|
d]-------------------------------------------------------------------|

Repeat

Build up
[play gently]

e]--------------------------10---------------------------|
b]-12--12-------12----12-13----13-12----12--12-----12----|
g]-12---12------12----------------------12---12----12----|
d]-12-----------10----------------------12---------10----|
a]-------------------------------------------------------|
d]--------0------------------------------------0---------|

e]---------------------------------------|
b]---------------------------------------|
g]---------9--11-------------------------|
d]-4-4--7--9-----------------------------|
a]-4-4--7--7--9--------------------------|
d]-4-4--7-----0--------------------------| x2

e]---------------------------------------|
b]---------------------------------------|
g]---------9--11-11-11-11-11-11-11-11-11-|
d]-4-4--7--9-----------------------------|
a]-4-4--7--7--9--9--9--9--9--9--9--9--9--|
d]-4-4--7-----0--0--0--0--0--0--0--0--0--| x2


3rd chorus

e]-------------------------------------|
b]-------------------------------------|
g]-11--------7--------6--------7-------|
d]-9---------5--------4--------5-------|
a]-9--(x16)--5-(x16)--5-(x16)--5-(x16)-|
d]-9---------5--------4--------5-------|  x2

e]----------------------------------------|
b]-15-------17-17-15-------17-17-14-------|
g]----------------------------------------|
d]-12-(x14)-14-14-12-(x14)-14-14-11-(x14)-|
a]----------------------------------------|
d]----------------------------------------|

e]-------------------------------------------------|
b]-17-17-15-17-19-15-15-15-15-15-15-14-15-17-15-14-|
g]-------------------------------------------------|
d]-14-14-12-14-16-12-12-12-12-12-12-11-12-14-12-11-|
a]-------------------------------------------------|
d]-------------------------------------------------|

e]----------------------------------------|
b]-15-------17-17-15-------17-17-14-------|
g]----------------------------------------|
d]-12-(x14)-14-14-12-(x14)-14-14-11-(x14)-|
a]----------------------------------------|
d]----------------------------------------|

e]-----------------------------------------|
b]-17-17-15-17-19-15-15-15-15-15-15-15-15\-|
g]-----------------------------------------|
d]-14-14-12-14-16-12-12-12-12-12-12-12-12\-|
a]-----------------------------------------|
d]-----------------------------------------|

Ending

e]-----------------------|
b]-----------------------|
g]----9/11\9-----11-9-11-|
d]--------------0--0-0---|
a]-----------------------|
d]-0----------9----------| (x2)

e]-------------------------------------------|
b]-------------------------------------------|
g]----9/11\9-----11-9-----6-x-x--7----6---/9-|
d]--------------0--0--11--4-x-x--5----4---/7-|
a]------------------------4-x-x--5----4---/7-|
d]-0----------9-----------4-x-x--5----4---/7-|

Outro

e]---------------------------------------------------------------------|
b]---------------------------------------------------------------------|
g]---------------------------------------------------------------------|
d]---------------------------------------------------------------------|
a]-3-3-3-3-3-3-3-3--3-3-3-3-3-3-3-3--3-3-3-3-3-3-3-3--3-3-3-3-3-3-3-3--|
d]-0-0-0-0-0-0-0-0--0-0-0-0-0-0-0-0--0-0-0-0-0-0-0-0--0-0-0-0-0-0-0-0--|

(Fade out)

Wave Upon Wave Upon Wave
Why bother talking, if nobody's listening,
Blame it on the final phase of your induction.
Why bother talking, if nobody's listening,
Blame it on the firstborn, the firstborn is dead.

There's a knife in my hand,
Covered in blood, I can't understand.

Why, fucker, why?
Wave upon wave, upon, wave upon wave.

Why bother sitting, I can't stand sitting.
Just blame it on someone, it's your own instruction.
Why bother talking, if nobody's listening.
Name it as the firstborn, the firstborn's alive.

There's a knife in my hand,
Covered in blood, I can't understand.

Why, fucker, why?
Why, why, why, why?

I've waited so long, I've waited so long.
To see what it takes.
I can't say no, I can't say no.
To see what it takes.

Ahhhhh, Ahhhhhh, Ahhhhh
Ahhhhh, Ahhhhhh, Ahhhhh

We're letting it go just before time.
Sink to the bottom of our lives.
We're letting it go before our time.
Helping us through our sad lives.

Do you believe in magic?
Do you believe in magic?
Do you believe in magic?
Do you believe in magic?

Wave upon wave, upon, wave upon wave.
Comments