Biffy Clyro - Toys Toys Toys Chords & Tabs

 

Toys Toys Toys Chords & Tabs

Biffy Clyro Chords & Tabs

Version: 1 Type: Tab 0 ratings
1 star 2 stars 3 stars 4 stars 5 stars
comments

Toys Toys Toys Tab

hey there sports fans, this is aunt gary, the most unBELIEVABLE biffy fan u'll
ever meet, this is a cool new song which i forgot some parts of, but enjoy.

verse
e --------------------------------------------------------------------------
b --------------------------------------------------------------------------
g -----------------------------------------------------------------------
d 99999-00000-55555-55-55-5----------------------------------------------------
a 77777-00000-33333-33-55-3ring thru-------------------------------------------
D 77777-00000-33333-xx-55------------------------------------------------------
   (palm muted)  

(bass bitty, then...

e--------------------------------------------------------------------------
b-----11------11--------------------------------------------------------------- 
g-9-9-----9-9--------------------------------------------------------     
d-----------------------------------------------------------------------------
a----------------------------------------------------------------------------
D---------------------------------------------------------------------------
 
(verse again)

loud part with loadsa distortion.

e---------------------------------------------------------------------
b---------------------------------------------------------------------
g---------------------------------------------------------------------
d 0-------------------------------------------------------------------
a 0 let ring out~~~---------------------------------------------------
D 0-------------------------------------------------------------------
[ Tab from: http://www.guitartabs.cc/tabs/b/biffy_clyro/toys_toys_toys_tab.html ]
e---------------------------------------------------------------------
b---------------------------------------------------------------------
g---------------7777777------------------------------------------------
d-1 0 1 7777777-7777777-0---------------------1-1-5-0-0-------------------
a 1 0 1 7777777-5555555-0 ring out once again 1-1-5-0-0-------------------
D 1 0 1 7777777---------0---------------------1-1-5-0-0------------------- 

"in the shadows of her eyes"                "i will be right here 

e----------------------------------------------------------------------
b----------------------------------------------------------------------
g-9b9b9b9b9b9b9b9b9b9b9b-----------------------------------------------
d-----------------------0-----------1-1-5-0----------------------------
a-----------------------0 ring out--1-1-5-0----------------------------
D-----------------------0-----------1-1-5-0----------------------------

e----------------------------------------------------------------------
b-15-15-15-15-15-17-17-17-17-17-13-13-13-13-13-11h12-11h12-11h12-------
g----------------------------------------------------------------------
d----------------------------------------------------------------------
a----------------------------------------------------------------------
D----------------------------------------------------------------------

e-------------------------------------15------15--------14-------------
b-15-15-15-15-15-17-17-17-17-17-13-13---13-13---13-11h12--& so forth,-- 
g----------------------------------------------------------------------
d----------------------------------------------------------------------
a----------------------------------------------------------------------
D----------------------------------------------------------------------

im gonna have 2 get back 2 u'z on the end, i kno it but im not so sure yet, enjoy
chow ding
Comments