Biffy Clyro - Scary Mary Chords & Tabs

 

Scary Mary Chords & Tabs

Biffy Clyro Chords & Tabs

Version: 1 Type: Tab 0 ratings
1 star 2 stars 3 stars 4 stars 5 stars
comments

Scary Mary Tab

---------------------------------------------------------------------
		     Biffy Clyro= Scary Mary
---------------------------------------------------------------------

ok,this is the last song on the album: Blackened Sky.its simple.just a 
little bit of clean there and the occasional distortion.bye(tombuttcrunch116@hotmail.com).

verse
e|----------------------------------------------------------------
b|----------------------------------------------------------------
g|---5--5-5-5-5-4--5-5-5-5--5--5-5-5-5--4--5-5-5-5--9--9-9-9-9--9-
d|---5--5-5-5-5-5--5-5-5-5--5--5-5-5-5--5--5-5-5-5--9--9-9-9-9--9-
a|---3--3-3-3-3-3--3-3-3-3--3--3-3-3-3--3--3-3-3-3--7--7-7-7-7--7-
E|----------------------------------------------------------------

e|----------------------------------------------------------------
b|----------------------------------------------------------------
g|---9-9-9-9--5--5-5-5-5-5--5-5-5-5-------------------------------
d|---9-9-9-9--5--5-5-5-5-5--5-5-5-5----(x 3)----------------------
a|---7-7-7-7--3--3-3-3-3-3--3-3-3-3-------------------------------
E|----------------------------------------------------------------

0:37
e|----------------------------------------------------------------
b|----------------------------------------------------------------
g|---7--7-7-7-7--9--9-9-9-9--5--5-5-5-5--5--5-5-5-5---------------
d|---7--7-7-7-7--9--9-9-9-9--5--5-5-5-5--5--5-5-5-5---------------
a|---5--5-5-5-5--7--7-7-7-7--3--3-3-3-3--3--3-3-3-3---------------
E|----------------------------------------------------------------

0:45
e|----------------------------------------------------------------
b|----------------------------------------------------------------
g|---5--5-5-5-5-4--5-5-5-5--5--5-5-5-5--4--5-5-5-5--7--7-7-7-7--4-
d|---5--5-5-5-5-5--5-5-5-5--5--5-5-5-5--5--5-5-5-5--7--7-7-7-7--4-
a|---3--3-3-3-3-3--3-3-3-3--3--3-3-3-3--3--3-3-3-3--5--5-5-5-5--2-
E|----------------------------------------------------------------

e|----------------------------------------------------------------
b|----------------------------------------------------------------
g|---4-4-4-4--5--5-5-5-5--5--5-5-5-5------------------------------
d|---4-4-4-4--5--5-5-5-5--5--5-5-5-5------------------------------
a|---2-2-2-2--3--3-3-3-3--3--3-3-3-3------------------------------
E|----------------------------------------------------------------

e|----------------------------------------------------------------
b|----------------------------------------------------------------
g|---5--5-5-5-5-4--5-5-5-5--5--5-5-5-5--4--5-5-5-5--7--7-7-7-7--4-
d|---5--5-5-5-5-5--5-5-5-5--5--5-5-5-5--5--5-5-5-5--7--7-7-7-7--4-
a|---3--3-3-3-3-3--3-3-3-3--3--3-3-3-3--3--3-3-3-3--5--5-5-5-5--2-
E|----------------------------------------------------------------

e|----------------------------------------------------------------
b|----------------------------------------------------------------
g|---4-4-4-4--5--5-5-5-5--5--5-5-5-5------------------------------
d|---4-4-4-4--5--5-5-5-5--5--5-5-5-5------------------------------
a|---2-2-2-2--3--3-3-3-3--3--3-3-3-3------------------------------
E|----------------------------------------------------------------
[ Tab from: http://www.guitartabs.cc/tabs/b/biffy_clyro/scary_mary_tab.html ]
e|----------------------------------------------------------------
b|----------------------------------------------------------------
g|---7--7-7-7-7--4--4-4-4-4--5--5-5-5-5--5--5--4--4-4--4-4--4-4---
d|---7--7-7-7-7--4--4-4-4-4--5--5-5-5-5--5--5--4--4-4--4-4--4-4---
a|---5--5-5-5-5--2--2-2-2-2--3--3-3-3-3--3--3--2--2-2--2-2--2-2---
E|----------------------------------------------------------------

e|----------------------------------------------------------------
b|----------------------------------------------------------------
g|---4-4-4/5--5-5--5-5--5/7--7-7--4-4-----------------------------
d|---4-4-4/5--5-5--5-5--5/7--7-7--4-4----(x 2)--------------------
a|---2-2-2/3--3-3--3-3--3/5--5-5--2-2-----------------------------
E|----------------------------------------------------------------

e|----------------------------------------------------------------
b|----------------------------------------------------------------
g|---4--4-4--2-4--2-4--4-4--5--5-5--7-7--7-7--4-4-----------------
d|---4--4-4--2-4--2-4--4-4--5--5-5--7-7--7-7--4-4-----------------
a|---2--2-2--0-2--0-2--2-2--3--3-3--5-5--5-5--2-2-----------------
E|----------------------------------------------------------------

e|----------------------------------------------------------------
b|----------------------------------------------------------------
g|---4--4-4--2-4--2-4--4-4--5--5-5--7-7--7-/9--11--12--12---------
d|---4--4-4--2-4--2-4--4-4--5--5-5--7-7--7-/9--11--12--12---------
a|---2--2-2--0-2--0-2--2-2--3--3-3--5-5--5-/7--9---10--10---------
E|----------------------------------------------------------------

2:07
e|--------3-----3-------3-----3-----------------------------------
b|--------------------------------------3--1-----------3--1-------
g|---5-------------5-----------------0--------0-----0--------0----
d|-----5-----5-------5-----5-------3--------------3---------------
a|----------------------------------------------------------------
E|----------------------------------------------------------------
w/reverb

(bass)
g|----------------------------------------------------------------
d|----------------------------------------------------------------
a|---3------------------------------------------------------------
E|------------------3---------------1-------------1---------------

e|----------------------------------------------------------------
b|----------------------------------------------------------------
g|---5------------------------------------------------------------
d|---5------------------------------------------------------------
a|---3------------------------------------------------------------
E|----------------------------------------------------------------
w/reverb

What must i have become, to deserve all the shit that you gave me
the rocks look like a body in the river
now i just wish that i could sleep
to keep me from thinknig
but the thoughts keep me up its been two months since you
taught me not to trust
but you kept you promise 
you made patterns in my face
you painted pictures with my tears
and you did it again
i knew that you would
thank you for showing
me theres more
wash off your hands its time to let go, release them
give time to your heart give time to your soul
release them 

any suggestions just email me
=====================================================================
Comments