Biffy Clyro - Questions And Answers Chords & Tabs

 

Questions And Answers Chords & Tabs

Biffy Clyro Chords & Tabs

Version: 2 Type: Tab 0 ratings
1 star 2 stars 3 stars 4 stars 5 stars
comments

Questions And Answers Tab

Verse
gtr1(clean)
e|-------------------------------------
b|-------------------------------------
g|-------------------------------------
d|---0-0-0-0-0-0-0-0---4-4-4---2-2-2---
a|---0-0-0-0-0-0-0-0---2-2-2---0-0-0---
D|---0-0-0-0-0-0-0-0-------------------

gtr2(clean)
e|-------------------------------------
b|-------------------------------------
g|---9-9-9-11111111111111111111111111--
d|-------------------------------------
a|---7-7-7-9-9-9-9-9-9-9-9-9-9-9-9-9---
D|-------------------------------------


Bridge(clean)
e|-----------------------
b|-------7-------7-------
g|-----------------------
d|---5---5---5---5---etc-
a|---5---5---5---5-------
D|---5---5---5---5-------


Verse

Bridge

Fill
gtr1(clean)
e|----------------------
b|----------------------
g|----------------------
d|---9-9---5/7--7-------
a|---9-9---5/7--7-------
D|---9-9---5/7--7-------x4

e|----------------------
b|----------------------
g|----------------------
d|---14---12------------
a|---14---12------------
D|---14---12-------------x4

gtr2(clean)
e|----------------------
b|----------------------
g|----------------------
d|---11-9---5/7-7-------
a|----------------------
D|----------------------x4

e|----------------------
b|----------------------
g|----------------------
d|---14---12------------
a|---14---12------------
D|---14---12-------------x4

Gtr1(dist)
e|-----------------
b|-----------------
g|-----------------
d|---5--5-5--5-5---
a|---5--5-5--5-5---
D|---5--5-5--5-5---

Gtr2(dist)
e|---------------------
b|---------------------
g|---7-7-7-7-7-7-7-7---
d|---------------------
a|---5-5-5-5-5-5-5-5---
D|---------------------

Pre-Chorus
Gtr1(dist)
e|-----------------------------------------------------
b|-----------------------------------------------------
g|-----------------------------------------------------
d|---2-2-2-2-2-2-2-2-0-0-0-0-0-0-0-0--5--5-5--5--5-5---
a|---2-2-2-2-2-2-2-2-0-0-0-0-0-0-0-0--5--5-5--5--5-5---
D|---2-2-2-2-2-2-2-2-0-0-0-0-0-0-0-0--5--5-5--5--5-5---

Gtr2(dist)
e|-------------------------------------------------------------------
b|-------------------------------------------------------------------
g|---9-9-9-9-9-9-9-9-11111111111111117-7-7-7-7-7-7-7-7-7-7-7-7-7-7-7-
d|-------------------------------------------------------------------
a|---7-7-7-7-7-7-7-7-9-9-9-9-9-9-9-9-5-5-5-5-5-5-5-5-5-5-5-5-5-5-5-5-
D|-------------------------------------------------------------------

Chorus
(dist)
e|------------------------------------------------------------------
b|------------------------------------------------------------------
g|-------------------6-6-6-6-6-6-6-6-9-9-9-9-9-11-6-6-6-6-7-7-7-7---
d|---7-7-7-7-7-7-7-7-5-5-5-5-5-5-5-5-9-9-9-9-9-9--5-5-5-5-5-5-5-5---
a|---5-5-5-5-5-5-5-5-5-5-5-5-5-5-5-5-9-9-9-9-9-9--5-5-5-5-5-5-5-5---
D|-------------------5-5-5-5-5-5-5-5-9-9-9-9-9-9--5-5-5-5-5-5-5-5---x4

Fill2

Post-Chorus2
Gtr1(dist)
e|--------------------------------------------------
b|--------------------------------------------------
g|--------------------------------------------------
d|---0-0-0-0-0-0-0-0-0-0-0-0-0-0-0-0----------------
a|---0-0-0-0-0-0-0-0-0-0-0-0-0-0-0-0-keep playing---
D|---0-0-0-0-0-0-0-0-0-0-0-0-0-0-0-0----------------
[ Tab from: http://www.guitartabs.cc/tabs/b/biffy_clyro/questions_and_answers_tab_ver_2.html ]
Gtr2(quiet dist)
e|-----------------------------------------------------
b|-----------------------------------------------------
g|---12-12-12-12-12-12-12-12-11-11-11-11-11-11-11-11---
d|-----------------------------------------------------
a|---10-10-10-10-10-10-10-10-9--9--9--9--9--9--9--9----
D|-----------------------------------------------------

e|-----------------------------------------------------
b|-----------------------------------------------------
g|---14-14-14-14-14-14-14-14-11-11-11-11-11-11-11-11---
d|-----------------------------------------------------
a|---12-12-12-12-12-12-12-12-9--9--9--9--9--9--9--9----
D|-----------------------------------------------------

Solo
(clean)
e|-----------------------------------
b|-----------------------------------
g|-9-11---9h11-11--12p11-11--11/14-14
d|-----------------------------------
a|-----------------------------------
D|-----------------------------------x2

e|---------------------------------
b|---------------------------------
g|-9-11---9h11-11--12p11--11p9/7-7-
d|---------------------------------
a|---------------------------------
D|---------------------------------

e|-------------------------------------------------------------
b|-----------------------14-------------------14---------------
g|-9-11---9h11-11--14-16----14-12--7h9--14-16----12--7h-9-7----
d|-------------------------------------------------------------
a|-------------------------------------------------------------
D|-------------------------------------------------------------

Chorus(Quiet n clean)

e|-------------------------------------
b|-------------------------------------
g|---7-7-7-7-7-7-7-7-6-6-6-6-6-6-6-6---
d|-------------------5-5-5-5-5-5-5-5---
a|---5-5-5-5-5-5-5-5-5-5-5-5-5-5-5-5---
D|-------------------5-5-5-5-5-5-5-5---

e|-------------------------------------
b|-------------------------------------
g|---9-9-9-9-11--6-6-6-6-6-6-6-6-------
d|---9-9-9-9-9---5-5-5-5-5-5-5-5-------
a|---9-9-9-9-9---5-5-5-5-5-5-5-5-------
D|---9-9-9-9-9---5-5-5-5-5-5-5-5-------

Chorus

Outro

Post-Chorus
Gtr2(clean)
e|----------------------------------------------
b|----------------------------------------------
g|---12-12-12-12-12-12-12-12-1111111111111111---
d|----------------------------------------------
a|---10-10-10-10-10-10-10-10-9-9-9-9-9-9-9-9----
D|----------------------------------------------

e|----------------------------------------------
b|----------------------------------------------
g|---14-14-14-14-14-14-14-14-1111111111111111---
d|----------------------------------------------
a|---12-12-12-12-12-12-12-12-9-9-9-9-9-9-9-9----
D|----------------------------------------------


Gtr1(dist)
e|------
b|------
g|------
d|---0--repeat
a|---0--
D|---0--

Gtr2(dist)
e|----------------------------------------------
b|----------------------------------------------
g|---12-12-12-12-12-12-12-12-1111111111111111---
d|----------------------------------------------
a|---10-10-10-10-10-10-10-10-9-9-9-9-9-9-9-9----
D|----------------------------------------------

e|----------------------------------------------
b|----------------------------------------------
g|---14-14-14-14-14-14-14-14-1111111111111111---
d|----------------------------------------------
a|---12-12-12-12-12-12-12-12-9-9-9-9-9-9-9-9----
D|----------------------------------------------

end on G5
Comments