Biffy Clyro - Questions And Answers Chords & Tabs

 

Questions And Answers Chords & Tabs

Biffy Clyro Chords & Tabs

Version: 1 Type: Tab 0 ratings
1 star 2 stars 3 stars 4 stars 5 stars
comments

Questions And Answers Tab

---------------------------------------------------------------------
		     Biffy Clyro= Questions and Answers
---------------------------------------------------------------------

Ok this is the secodn single for the new album Vertigo of Bliss.This is in Drop D.
Im the guy thats tabbed all except for one song on blackened sky
(tombuttcrunch116@hotmail.com).I thought u no may as well b the first to start
this too.lol.By the way, i will tab the song i havent yet dun for blackened sky:
Kill the old Torture their young.Just gime till next week.lol.neways here is
Questions and answers,enjoy:D

/      : slide up
\      : slide down
h      : hammer on
t      : play that note very hard
b(1/8) : bend but only slightly

Intro
(0:02)
e|---------
b|---------
g|---------
d|---0-----let ring for a wile
a|---0-----
D|---0-----

gtr2(starts at 0:04                            0:16)
e|--------------------------------------------------
b|--------------------------------------------------
g|---7-----------------------------------------0----
d|---5----------let ring then play this note--------
a|--------------------------------------------------
D|--------------------------------------------------

Verse
gtr1(0:19)
e|-------------------------------------
b|-------------------------------------
g|-------------------------------------
d|---0-0-0-0-0-0-0-0---4-4-4---2-2-2---
a|---0-0-0-0-0-0-0-0---2-2-2---0-0-0---
D|---0-0-0-0-0-0-0-0-------------------

gtr2
e|-------------------------------------
b|-------------------------------------
g|---9-9-9-11111111111111111111111111--
d|-------------------------------------
a|---7-7-7-9-9-9-9-9-9-9-9-9-9-9-9-9---
D|-------------------------------------

Bridge(0:41)
e|-----------------------
b|-------7-------7-------
g|-----------------------
d|---5---5---5---5---etc-
a|---5---5---5---5-------
D|---5---5---5---5-------

Verse(0:48)but with gtr2 played louder

Bridge(1:10)

Chorus(1:17)
e|------------------------------------------------------------------
b|------------------------------------------------------------------
g|-------------------6-6-6-6-6-6-6-6-9-9-9-9-9-11-6-6-6-6-7-7-7-7---
d|---7-7-7-7-7-7-7-7-5-5-5-5-5-5-5-5-9-9-9-9-9-9--5-5-5-5-5-5-5-5---
a|---5-5-5-5-5-5-5-5-5-5-5-5-5-5-5-5-9-9-9-9-9-9--5-5-5-5-5-5-5-5---
D|-------------------5-5-5-5-5-5-5-5-9-9-9-9-9-9--5-5-5-5-5-5-5-5---

Post-Chorus(1:32)
e|---------------
b|---------------
g|---------------
d|---/11-11-0-0--
a|---/9--9--0-0--
D|---/9--9--0-0--
repeat


Gtr2
e|---------------------
b|---------------------
g|----------11/14-14---
d|---11-11-------------
a|---9--9---9-/12-12---
D|---------------------repeat

(1:47)
e|------------------------------------------
b|------------------------------------------
g|-------9-----9-----9-----9-----9-----9----
d|-----7-----7-----------7-----7------------
a|---7-----7-----7-----5-----5-----5--------
D|------------------------------------------

last bar(1:54) goes like this:
e|-------------------------------------
b|-------------------------------------
g|-------------------9-9-9-9-9-9-9-9---
d|---9-9-9-9-9-9-9-9-7-7-7-7-7-7-7-7---
a|---7-7-7-7-7-7-7-7-5-5-5-5-5-5-5-5---
D|-------------------0-0-0-0-0-0-0-0---

(1:58)
Gtr1
e|-----------------
b|-----------------
g|-----------------
d|---5--5-5--5-5---
a|---5--5-5--5-5---
D|---5--5-5--5-5---

Gtr2
e|---------------------
b|---------------------
g|---7-7-7-7-7-7-7-7---
d|---------------------
a|---5-5-5-5-5-5-5-5---
D|---------------------

(2:01)
Gtr1
e|-----------------------------------------------------
b|-----------------------------------------------------
g|-----------------------------------------------------
d|---2-2-2-2-2-2-2-2-0-0-0-0-0-0-0-0--5--5-5--5--5-5---
a|---2-2-2-2-2-2-2-2-0-0-0-0-0-0-0-0--5--5-5--5--5-5---
D|---2-2-2-2-2-2-2-2-0-0-0-0-0-0-0-0--5--5-5--5--5-5---
[ Tab from: http://www.guitartabs.cc/tabs/b/biffy_clyro/questions_and_answers_tab.html ]
Gtr2
e|-------------------------------------------------------------------
b|-------------------------------------------------------------------
g|---9-9-9-9-9-9-9-9-11111111111111117-7-7-7-7-7-7-7-7-7-7-7-7-7-7-7-
d|-------------------------------------------------------------------
a|---7-7-7-7-7-7-7-7-9-9-9-9-9-9-9-9-5-5-5-5-5-5-5-5-5-5-5-5-5-5-5-5-
D|-------------------------------------------------------------------

Chorus(2:16)

Post-Chorus2(2:45)
Gtr1
e|--------------------------------------------------
b|--------------------------------------------------
g|--------------------------------------------------
d|---0-0-0-0-0-0-0-0-0-0-0-0-0-0-0-0----------------
a|---0-0-0-0-0-0-0-0-0-0-0-0-0-0-0-0-repeat-once----
D|---0-0-0-0-0-0-0-0-0-0-0-0-0-0-0-0----------------

Gtr2
e|-----------------------------------------------------
b|-----------------------------------------------------
g|---12-12-12-12-12-12-12-12-11-11-11-11-11-11-11-11---
d|-----------------------------------------------------
a|---10-10-10-10-10-10-10-10-9--9--9--9--9--9--9--9----
D|-----------------------------------------------------

e|-----------------------------------------------------
b|-----------------------------------------------------
g|---14-14-14-14-14-14-14-14-11-11-11-11-11-11-11-11---
d|-----------------------------------------------------
a|---12-12-12-12-12-12-12-12-9--9--9--9--9--9--9--9----
D|-----------------------------------------------------

(2:52)
Gtr1
e|----------------------------
b|----------------------------
g|---4-4----------------------
d|---4-4---7-7---5-5---5-5----
a|---2-2---7-7---5-5---5-5----
D|---------7-7---5-5---5-5----

Gtr2
e|----------------------------------
b|-------------------7-7-7--7-7-7---
g|---9--11--9/11-11--4-5-5--4-5-5---
d|----------------------------------
a|---7--9---7/9--9---5-5-5--5-5-5---
D|----------------------------------

(3:00)
Gtr2
e|---------------------------------
b|---------------------------------
g|---9t--11t---9h11--11b(1/8)------
d|---------------------------------
a|---------------------------------
D|---------------------------------

e|-----------------------------------------------
b|---------14-------------------14---------------
g|---14-16----14-12--7h9--14-16----12--7h-9-7----
d|-----------------------------------------------
a|-----------------------------------------------
D|-----------------------------------------------

Quiet Chorus(3:07)

e|-------------------------------------
b|-------------------------------------
g|---7-7-7-7-7-7-7-7-6-6-6-6-6-6-6-6---
d|-------------------5-5-5-5-5-5-5-5---
a|---5-5-5-5-5-5-5-5-5-5-5-5-5-5-5-5---
D|-------------------5-5-5-5-5-5-5-5---

e|-------------------------------------
b|-------------------------------------
g|---9-9-9-9-11--6-6-6-6-6-6-6-6-------
d|---9-9-9-9-9---5-5-5-5-5-5-5-5-------
a|---9-9-9-9-9---5-5-5-5-5-5-5-5-------
D|---9-9-9-9-9---5-5-5-5-5-5-5-5-------

Chorus(3:22)

Post-Chorus(3:37)
Gtr2
e|----------------------------------------------
b|----------------------------------------------
g|---12-12-12-12-12-12-12-12-1111111111111111---
d|----------------------------------------------
a|---10-10-10-10-10-10-10-10-9-9-9-9-9-9-9-9----
D|----------------------------------------------

e|----------------------------------------------
b|----------------------------------------------
g|---14-14-14-14-14-14-14-14-1111111111111111---
d|----------------------------------------------
a|---12-12-12-12-12-12-12-12-9-9-9-9-9-9-9-9----
D|----------------------------------------------

(3:44)
Gtr1
e|------
b|------
g|------
d|---0--keep playing this chord
a|---0--
D|---0--

Gtr2
e|----------------------------------------------
b|----------------------------------------------
g|---12-12-12-12-12-12-12-12-1111111111111111---
d|----------------------------------------------
a|---10-10-10-10-10-10-10-10-9-9-9-9-9-9-9-9----
D|----------------------------------------------

e|----------------------------------------------
b|----------------------------------------------
g|---14-14-14-14-14-14-14-14-1111111111111111---
d|----------------------------------------------
a|---12-12-12-12-12-12-12-12-9-9-9-9-9-9-9-9----
D|----------------------------------------------

(3:52)
Gtr1
e|---------------------
b|---------------------
g|---11-12-14---7--7---
d|--------------5--5---
a|---9--10-12---5--5---
D|---------------------

Gtr2
e|------
b|------
g|------
d|---5--
a|---5--
D|---5--
Comments