Biffy Clyro - Now The Action Is On Fire Chords & Tabs

 

Now The Action Is On Fire Chords & Tabs

Biffy Clyro Chords & Tabs

Version: 1 Type: Tab 0 ratings
1 star 2 stars 3 stars 4 stars 5 stars
comments

Now The Action Is On Fire Tab

   
-----------------------------------------------------------------------------
                  Biffy Clyro - Now The Action Is On Fire! tab
-----------------------------------------------------------------------------

Tabbed by Matt (matt@boas.freeserve.co.uk).  I think this is pretty accurate,
I played it along to the CD and it sounded good to me!  Some of the timing
between the notes might not be quite right, but just play along to the song
and you'll be able to tell what the rhythm is.  The hardest part's the timing
in the outro, but take it slow and you'll get it eventually.  Enjoy!

Intro
e]-----------------------------------------|
b]-------0---------0---------0---------0---|
g]----3----3----3----3----3----3----3----3-|
d]-----------------------------------------|
a]-2---------------------------------------|
d]-----------------------------------------| (x2)

Verse 1
e]-----------------------------------------|
b]-------0---------0---------0-------0---0-|
g]----3----3----2----2----0----0-----------|
d]---------------------------------2-------|
a]-2---------2---------2---------4-----0---|
d]-----------------------------------------| (x2)

e]-------------------------------------------------------------------------|
b]-------------------------------------------------------------------------|
g]-2---------------4---------------4---4-4---4-4-4-4-4-2---2-2---2-2-2-2-2-|
d]-0---------------2---------------4---4-4---4-4-4-4-4-4---4-4---4-4-4-4-4-|
a]-0---------------2---------------2---2-2---2-2-2-2-2-2---2-2---2-2-2-2-2-|
d]-0---------------2-------------------------------------------------------|
(x2)

e]-----------------------------------------|
b]-----------------------------------------|
g]-2---2-2---2-2-2-2-2-4---4-4---4-4-4-4-4-|
d]-0---0-0---0-0-0-0-0-2---2-2---2-2-2-2-2-|
a]-0---0-0---0-0-0-0-0-2---2-2---2-2-2-2-2-|
d]-0---0-0---0-0-0-0-0-2---2-2---2-2-2-2-2-|

e]---------------------|---------------------|
b]---------------------|---------------------|
g]-4--44-4---4-4-4-4---|-4--44-4---4-4-4-4---|
d]-4--44-4---4-4-4-4---|-4--44-4---4-4-4-4---|
a]-0--22-2---0-2-0-2---|-4--44-4---4-4-0-0---|
d]-------------------x3|---------------------| (x3)

Chorus
e]-----------------------------------------------------------------------|
b]-----------------------------------------------------------------------|
g]2--2-2--2-2-2-2-2-4--4-4--4-4-4-4-4-4--4-4--4-4-4-4-4-2--2-2--2-2-2-2-2|
d]0--0-0--0-0-0-0-0-2--2-2--2-2-2-2-2-4--4-4--4-4-4-4-4-4--4-4--4-4-4-4-4|
a]0--0-0--0-0-0-0-0-2--2-2--2-2-2-2-2-2--2-2--2-2-2-2-2-2--2-2--2-2-2-2-2|
d]0--0-0--0-0-0-0-0-2--2-2--2-2-2-2-2------------------------------------| (x2)

e]-----------------------------------------------------------------------|
b]-----------------------------------------------------------------------|
g]2--2-2--2-2-2-2-2-4--4-4--4-4-4-4-4-4--4-4--4-4-4-4-4-2--2-2--2-2-2-2-2|
d]0--0-0--0-0-0-0-0-2--2-2--2-2-2-2-2-4--4-4--4-4-4-4-4-2--2-2--2-2-2-2-2|
a]0--0-0--0-0-0-0-0-2--2-2--2-2-2-2-2-2--2-2--2-2-2-2-2-0--0-0--0-0-0-0-0|
d]0--0-0--0-0-0-0-0-2--2-2--2-2-2-2-2------------------------------------|

e]-----------------------------------------|
b]-----------------------------------------|
g]-7---7-7---7-7-7-7-7-7---7-7---7-7-7-7-7-|
d]-5---5-5---5-5-5-5-5-7---7-7---7-7-7-7-7-|
a]-5---5-5---5-5-5-5-5-7---7-7---7-7-7-7-7-|
d]-5---5-5---5-5-5-5-5-7---7-7---7-7-7-7-7-| (x2)

e]-----------------------------------------------------|
b]-----------------------------------------------------|
g]-7---7-7---7-7-7-7-7-2---2-2---2-2-2-2-2-6-----------|
d]-5---5-5---5-5-5-5-5-0---0-0---0-0-0-0-0-4-----------|
a]-5---5-5---5-5-5-5-5-0---0-0---0-0-0-0-0-4-----------|
d]-5---5-5---5-5-5-5-5-0---0-0---0-0-0-0-0-4-----------|

Bridge (with swing rhythm)
e]6---6--6-6---6--6-6---6--6-6--6---------------------------------------|
b]6---6--6-6---6--6-6---6--6-7--6----6---6--6-6---6--6-6---6--676-76-76-|
g]6---6--6-6---6--6-6---6--6-6--6----6---6--6-6---6--6-6---6--6--6--6--6|
d]8---8--8-8---8--8-8---8--8-8--8----4---4--4-4---4--4-4---4--4-4-------|
a]6---6--6-6---6--6-6---6--6-6--6----4---4--4-4---4--4-4---4--4-4-------|
d]-----------------------------------4---4--4-4---4--4-4---4--4-4-------|
(x2)

e]-2----2--2-2----2--2-2----2--2-2----2--2-|
b]-2----2--2-2----2--2-2----2--2-2----2--2-|
g]-3----3--3-3----3--3-3----3--3-3----3--3-|
d]-4----4--4-4----4--4-4----4--4-4----4--4-|
a]-2----2--2-2----2--2-2----2--2-2----2--2-|
d]-----------------------------------------|

e]----------------------2----2--2-2----2--2-------------2----2--2-2----2--2-|
b]------------6----6--6-2----2--2-2----2--2-------------2----2--2-2----2--2-|
g]6--8--------6----6--6-3----3--3-3----3--3-6--8--------3----3--3-3----3--3-|
d]6--8--1--3--4----4--4-4----4--4-4----4--4-6--8--1--3--4----4--4-4----4--4-|
a]4--6--1--3--4----4--4-2----2--2-2----2--2-4--6--1--3--2----2--2-2----2--2-|
d]------1--3--4----4--4---------------------------1--3----------------------|

e]---------2---2--2-2---2--2-2---2--2-6---6--6-2---2--2-2---2--2-2---2--2|
b]6---6--6-2---2--2-2---2--2-2---2--2-6---6--6-2---2--2-2---2--2-2---2--2|
g]6---6--6-3---3--3-3---3--3-3---3--3-6---6--6-3---3--3-3---3--3-3---3--3|
d]4---4--4-4---4--4-4---4--4-4---4--4-8---8--8-4---4--4-4---4--4-4---4--4|
a]4---4--4-2---2--2-2---2--2-2---2--2-6---6--6-2---2--2-2---2--2-2---2--2|
d]4---4--4---------------------------------------------------------------|
(x2)

Breakdown
e]----------------------------------------------------|
b]-------------------0--------------------------------|
g]-----7-----3-----3---3--------8-----4-----3------7--|
d]---8-----4-----4-------4----9-----5-----4------8----|
a]-8-----4-----4-----------/9-----5-----4-----/8------|
d]----------------------------------------------------|

e]-2----2--2-2----2--2-2----2--2-2----2--2-|
b]-4----4--4-4----4--4-3----3--3-3----3--3-|
g]-4----4--4-4----4--4-4----4--4-4----4--4-|
d]-4----4--4-4----4--4-4----4--4-4----4--4-|
a]-2----2--2-2----2--2-2----2--2-2----2--2-|
d]-----------------------------------------|
[ Tab from: http://www.guitartabs.cc/tabs/b/biffy_clyro/now_the_action_is_on_fire_tab.html ]
e]----------------------2----2--2-2----2--2-------------2----2--2-2----2--2-|
b]------------6----6--6-2----2--2-2----2--2-------------2----2--2-2----2--2-|
g]6--8--------6----6--6-3----3--3-3----3--3-6--8--------3----3--3-3----3--3-|
d]6--8--1--3--4----4--4-4----4--4-4----4--4-6--8--1--3--4----4--4-4----4--4-|
a]4--6--1--3--4----4--4-2----2--2-2----2--2-4--6--1--3--2----2--2-2----2--2-|
d]------1--3--4----4--4---------------------------1--3----------------------|

e]---------------------2---2--2-2---2--2-------------2---2--2-2---2--2-2--4-|
b]------------6---6--6-2---2--2-2---2--2-------------4---4--4-4---4--4-3----|
g]6--8--------6---6--6-3---3--3-3---3--3-6--8--------4---4--4-4---4--4-4----|
d]6--8--1--3--4---4--4-4---4--4-4---4--4-6--8--1--3--4---4--4-4---4--4-4----|
a]4--6--1--3--4---4--4-2---2--2-2---2--2-4--6--1--3--2---2--2-2---2--2-2----|
d]------1--3--4---4--4-------------------------1--3-------------------------|

Only bass
e]--------------------------------------------------------------------|
b]--------------------------------------------------------------------|
g]--------------------------------------------------------------------|
d]------------------------------------------------------------------0-|
a]----------------------------------------4------7-9-------4--------0-|
d]-4------/7---9---\4------/9---/12---\4-------7---9---\4-------9---0-|

e]--------------------------------------------------|
b]--------------------------------------------------|
g]-6---6-6-6-6-6---6-6-6-6--------------------------|
d]-8---8-8-8-8-8---8-8-8-8-9---9-9-9-9-9---9-9-9-9--|
a]-4---4-4-4-4-7---7-7-7-7-7---7-7-7-7-9---9-9-9-9--|
d]-4---4-4-4-4-4---4-4-4-4-7---7-7-7-7-9---9-9-9-9--|

e]-------------------------------------0--------0--------0--------0--------|
b]-------------------------------------3--------3--------3--------3--------|
g]-6---6-6-6-6-6---6-6-6-6-------------2--------2--------2--------2--------|
d]-8---8-8-8-8-8---8-8-8-8-9---9-9-9-9-0--------0--------0--------0--------|
a]-4---4-4-4-4-7---7-7-7-7-9---9-9-9-9-0--------0--------0--------0--------|
d]-4---4-4-4-4-4---4-4-4-4-9---9-9-9-9-0--------0--------0--------0--------|

Outro
e]-5-----5-----5-5-5-5---5-----5-5-5-----5-----5-5-----5---5------|
b]-6-----6-----6-6-6-6---6-----6-6-6-----6-----6-6-----6---6------|
g]-7-----7-----7-7-7-7---7-----7-7-7-----7-----7-7-----7---7------|
d]-7-----7-----7-7-7-7---7-----7-7-7-----7-----7-7-----7---7------|
a]----------------------------------------------------------------|
d]---0-0---0-0---------0---0-0-------0-0---0-0-----0-0---0--------|

e]-4-----4-----4-4-4-4-----4-----4-4-4-----4-----4-4-----4--------|
b]-5-----5-----5-5-5-5-----5-----5-5-5-----5-----5-5-----5--------|
g]-7-----7-----7-7-7-7-----7-----7-7-7-----7-----7-7-----7--------|
d]-6-----6-----6-6-6-6-----6-----6-6-6-----6-----6-6-----6--------|
a]----------------------------------------------------------------|
d]---0-0---0-0---------0-0---0-0-------0-0---0-0-----0-0----------|
(whole outro x4)

Now with orchestra, distorted
e]-5-----5-----5-5-5-5---5-----5-5-5-----5-----5-5-----5---5------|
b]-6-----6-----6-6-6-6---6-----6-6-6-----6-----6-6-----6---6------|
g]-7-----7-----7-7-7-7---7-----7-7-7-----7-----7-7-----7---7------|
d]-7-----7-----7-7-7-7---7-----7-7-7-----7-----7-7-----7---7------|
a]---0-0---0-0---------0---0-0-------0-0---0-0-----0-0---0--------|
d]---0-0---0-0---------0---0-0-------0-0---0-0-----0-0---0--------|

e]-4-----4-----4-4-4-4---4-----4-4-4-----4-----4-4-----4---4------|
b]-5-----5-----5-5-5-5---5-----5-5-5-----5-----5-5-----5---5------|
g]-7-----7-----7-7-7-7---7-----7-7-7-----7-----7-7-----7---7------|
d]-6-----6-----6-6-6-6---6-----6-6-6-----6-----6-6-----6---6------|
a]---0-0---0-0---------0---0-0-------0-0---0-0-----0-0---0--------|
d]---0-0---0-0---------0---0-0-------0-0---0-0-----0-0---0--------|

e]-5-----5-----5-5-5-5---5-----5-5-5-----5-----5-5-----5---5------|
b]-6-----6-----6-6-6-6---6-----6-6-6-----6-----6-6-----6---6------|
g]-7-----7-----7-7-7-7---7-----7-7-7-----7-----7-7-----7---7------|
d]-7-----7-----7-7-7-7---7-----7-7-7-----7-----7-7-----7---7------|
a]---0-0---0-0---------0---0-0-------0-0---0-0-----0-0---0--------|
d]---0-0---0-0---------0---0-0-------0-0---0-0-----0-0---0--------|

e]-4-----4-----4-4-4-4-----4-----4-4-4-----4-----4-4-----4--------|
b]-5-----5-----5-5-5-5-----5-----5-5-5-----5-----5-5-----5--------|
g]-7-----7-----7-7-7-7-----7-----7-7-7-----7-----7-7-----7--------|
d]-6-----6-----6-6-6-6-----6-----6-6-6-----6-----6-6-----6--------|
a]---0-0---0-0---------0-0---0-0-------0-0---0-0-----0-0----------|
d]---0-0---0-0---------0-0---0-0-------0-0---0-0-----0-0----------|

e]-7-7-7-7-7-7-7-7-7-7-7-7-7-7-7-7-7-7-7-7-7-7-7-7-7-7-7-7-7-7-7-7-|
b]-x-x-x-x-x-x-x-x-x-x-x-x-x-x-x-x-x-x-x-x-x-x-x-x-x-x-x-x-x-x-x-x-|
g]-9-9-9-9-9-9-9-9-9-9-9-9-9-9-9-9-9-9-9-9-9-9-9-9-9-9-9-9-9-9-9-9-|
d]-7-7-7-7-7-7-7-7-7-7-7-7-7-7-7-7-7-7-7-7-7-7-7-7-7-7-7-7-7-7-7-7-|
a]-7-7-7-7-7-7-7-7-7-7-7-7-7-7-7-7-7-7-7-7-7-7-7-7-7-7-7-7-7-7-7-7-|
d]-7-7-7-7-7-7-7-7-7-7-7-7-7-7-7-7-7-7-7-7-7-7-7-7-7-7-7-7-7-7-7-7-| (x2)

e]-5-----5-----5-5-5-5---5-----5-5-5-----5-----5-5-----5---5------|
b]-6-----6-----6-6-6-6---6-----6-6-6-----6-----6-6-----6---6------|
g]-7-----7-----7-7-7-7---7-----7-7-7-----7-----7-7-----7---7------|
d]-7-----7-----7-7-7-7---7-----7-7-7-----7-----7-7-----7---7------|
a]---0-0---0-0---------0---0-0-------0-0---0-0-----0-0---0--------|
d]---0-0---0-0---------0---0-0-------0-0---0-0-----0-0---0--------|

e]-4-----4-----4-4-4-4---4-----4-4-4-----4-----4-4-----4---4------|
b]-5-----5-----5-5-5-5---5-----5-5-5-----5-----5-5-----5---5------|
g]-7-----7-----7-7-7-7---7-----7-7-7-----7-----7-7-----7---7------|
d]-6-----6-----6-6-6-6---6-----6-6-6-----6-----6-6-----6---6------|
a]---0-0---0-0---------0---0-0-------0-0---0-0-----0-0---0--------|
d]---0-0---0-0---------0---0-0-------0-0---0-0-----0-0---0--------|

e]-7-7-7-7-7-7-7-7-7-7-7-7-7-7-7-7-7-7-7-7-7-7-7-7-7-7-7-7-7-7-7-7-|
b]-x-x-x-x-x-x-x-x-x-x-x-x-x-x-x-x-x-x-x-x-x-x-x-x-x-x-x-x-x-x-x-x-|
g]-9-9-9-9-9-9-9-9-9-9-9-9-9-9-9-9-9-9-9-9-9-9-9-9-9-9-9-9-9-9-9-9-|
d]-7-7-7-7-7-7-7-7-7-7-7-7-7-7-7-7-7-7-7-7-7-7-7-7-7-7-7-7-7-7-7-7-|
a]-7-7-7-7-7-7-7-7-7-7-7-7-7-7-7-7-7-7-7-7-7-7-7-7-7-7-7-7-7-7-7-7-|
d]-7-7-7-7-7-7-7-7-7-7-7-7-7-7-7-7-7-7-7-7-7-7-7-7-7-7-7-7-7-7-7-7-| (x2)

e]-----------------------------------------------13/\/\/\/\/\/\/\---|
b]-0-------------------------------11/\/\/\/\/\/\/\/\/\/\/\/\/\/\---|
g]-0----------------------------------------------------------------|
d]-0----------------------------------------------------------------|
a]-0----------------------------------------------------------------|
d]-0-(let ring into mindless feedback;)-----------------------------| (End suddenly with drums)

Comments