Biffy Clyro - My Recovery Injection Chords & Tabs

 

My Recovery Injection Chords & Tabs

Biffy Clyro Chords & Tabs

Version: 2 Type: Tab 0 ratings
1 star 2 stars 3 stars 4 stars 5 stars
comments

My Recovery Injection Tab

   
My Recovery Injection


--[bass intro]--

e]----------------|
b]----------------|
g]----------------|
d]-x-x--x-x--x-x--|
a]-x-x--x-x--x-x--|
d]-x-x--x-x--x-x--|

e]-----------------------------------------------------------------|
b]-----------------------------------------------------------------|
g]-----------------------------------------------------------------|
d]-----------------------------------------------------------------|
a]-10-10-x-x-10-10-x-x-10-10-x-x-10-10-x-x-10-10-x-x-10-10-x-x-----|
d]-----------------------------------------------------------------|

e]-----------------------------------------------------------------|
b]-----------------------------------------------------------------|
g]-----------------------------------------------------------------|
d]-----------------------------------------------------------------|
a]-10-10-x-x-10-10-x-x-8-8-x-x-8-8-x-x-8-8-x-x-8-8-x-x-8-8-x-x-----|
d]-----------------------------------------------------------------|

e]-------------------|
b]-------------------|
g]-------------------|
d]-------------------|
a]-8-8h10--8-8h10\---|
d]-------------------|

e]-10----------------------10-------------------------|
b]----10----------------------10----------------------|
g]-------10----------------------10-------------------|
d]----------[9b]--5-7-3\------------[9b]---9-10-12\---|
a]----------------------------------------------------|
d]----------------------------------------------------| x2

[don't slide at end of second time]

e]-14-13-14--14-13-14----[12]-|
b]-12-12-12--12-12-12---[12]--|
g]---------------------[12]---|
d]----------------------------|
a]----------------------------|
d]----------------------------| [12] = muted at octave

e]-14-13-14-----14-13-14---------14-13-14-|
b]-12-12-12-----12-12-12---------12-12-12-|
g]----------------------------------------|
d]----------------------------------------|
a]----------------------------------------|
d]----------------------------------------| x3

e]-14-13-14-------------------------------|
b]-12-12-12------------14-14---12-12-12---|
g]---------------------12-12---12-12-12---|
d]----------------------------------------|
a]----------------------------------------|
d]----------------------------------------|


e]-14-13-14-x-x-14-13-14-x-x-x-x-14-13-14-|
b]-12-12-12-x-x-12-12-12-x-x-x-x-12-12-12-|
g]----------------------------------------|
d]----[slight tremolo picking on [x]]-----|
a]----------------------------------------|
d]----------------------------------------| x3

e]-14-13-14-x-x-x--------------|
b]-12-12-12-x-x-x--------------|
g]----------------------7-7-7--|
d]-----------------5-5--7-7-7--|
a]-----------------5-5--5-5-5--|
d]-----------------5-5---------|

-----------------------------------------------
     Beginning of song from album version
-----------------------------------------------

e]-------------------------------------------|
b]-------------------------------------------|
g]-4p0-4p0--4p0-4p0--4p0-4p0-4p0--4p0-4p0-5\-|
d]-------------------------------------------|
a]-------------------------------------------|
d]-------------------------------------------|

e]------------|
b]------------|
g]-4p0-4p0-5\-|
d]------------|
a]------------|
d]------------|

e]------------|
b]------------|
g]-4p0-4p0-5\-|
d]------------|
a]------------|
d]------------|

e]-8----|
b]------|
g]-7~~~~
d]-8~~~~
a]-6~~~~
d]------

e]------------|
b]------------|
g]-4p0-4p0-5\-|
d]------------|
a]------------|
d]------------|

e]------------|
b]------------|
g]-4p0-4p0-5\-|
d]------------|
a]------------|
d]------------|

e]--------------------------------|
b]--------------------------------|
g]-3-3-3-3-3-3--12-12-12-12-12-12-|
d]-1-1-1-1-1-1--10-10-10-10-10-10-|
a]-1-1-1-1-1-1--10-10-10-10-10-10-|
d]-1-1-1-1-1-1--10-10-10-10-10-10-|

e]---------------------------------------------------------------------------------------|
b]---------------------------------------------------------------------------------------|
g]-4p0-4p0--4p0-4p0--4p0-4p0-4p0-4p0-4p0-5---4p0-4p0--4p0-4p0--4p0-4p0-4p0-4p0-4p0-5-4-\-|
d]---------------------------------------------------------------------------------------|
a]---------------------------------------------------------------------------------------|
d]---------------------------------------------------------------------------------------|

e]--------------------------------|
b]--------------------------------|
g]-3-3-3-3-3-3--12-12-12-12-12-12-|
d]-1-1-1-1-1-1--10-10-10-10-10-10-|
a]-1-1-1-1-1-1--10-10-10-10-10-10-|
d]-1-1-1-1-1-1--10-10-10-10-10-10-|
[ Tab from: http://www.guitartabs.cc/tabs/b/biffy_clyro/my_recovery_injection_tab_ver_2.html ]
e]--------------------------------------------------------------------|
b]---------------------------------------0-0-0------------------------|
g]-5-4--5-4--5-4--5/7-7---5-4--5-4--5-4--0-0-0---5-4--5-4--5-4--5/7-7-|
d]-0-0--0-0--0-0--0-0-0---0-0--0-0--0-0--0-0-0---0-0--0-0--0-0--0-0-0-|
a]-5-5--5-5--5-5--5/5-5---5-5--5-5--5-5--0-0-0---5-5--5-5--5-5--5/5-5-|
d]--------------------------------------------------------------------|

e]-8--8--8--8--8--8--8--8--8--8--8--8--8--8--8--8--|
b]-------------------------------------------------|
g]-10-10-10-10-10-10-10-10-9--9--9--9--9--9--9--9--|
d]-8--8--8--8--8--8--8--8--8--8--8--8--8--8--8--8--|
a]-8--8--8--8--8--8--8--8--8--8--8--8--8--8--8--8--|
d]-8--8--8--8--8--8--8--8--8--8--8--8--8--8--8--8--| x2

e]-7-7-7-7-7-7-7-7-8-8-8-8-8-8-8-8-7-7-7-7-7-7-7-7-8-8-8-8-8-8-8-8-|
b]-6-6-6-6-6-6-6-6-6-6-6-6-6-6-6-6-6-6-6-6-6-6-6-6-6-6-6-6-6-6-6-6-|
g]-5-5-5-5-5-5-5-5-5-5-5-5-5-5-5-5-5-5-5-5-5-5-5-5-5-5-5-5-5-5-5-5-|
d]-----------------------------------------------------------------|
a]-----------------------------------------------------------------|
d]-----------------------------------------------------------------| x2

e]-8-8-8-8-8-8-8-8-6-6-6-6-6-6-6-6-|
b]-6-6-6-6-6-6-6-6-6-6-6-6-6-6-6-6-|
g]-5-5-5-5-5-5-5-5-5-5-5-5-5-5-5-5-|
d]---------------------------------|
a]---------------------------------|
d]---------------------------------|

e]--------------------------------------------------------------------|
b]---------------------------------------0-0-0------------------------|
g]-5-4--5-4--5-4--5/7-7---5-4--5-4--5-4--0-0-0---5-4--5-4--5-4--5/7-7-|
d]-0-0--0-0--0-0--0-0-0---0-0--0-0--0-0--0-0-0---0-0--0-0--0-0--0-0-0-|
a]-5-5--5-5--5-5--5/5-5---5-5--5-5--5-5--0-0-0---5-5--5-5--5-5--5/5-5-|
d]--------------------------------------------------------------------|

e]-8--8--8--8--8--8--8--8--8--8--8--8--8--8--8--8--|
b]-------------------------------------------------|
g]-10-10-10-10-10-10-10-10-9--9--9--9--9--9--9--9--|
d]-8--8--8--8--8--8--8--8--8--8--8--8--8--8--8--8--|
a]-8--8--8--8--8--8--8--8--8--8--8--8--8--8--8--8--|
d]-8--8--8--8--8--8--8--8--8--8--8--8--8--8--8--8--| x2

Final chrous build up

e]-----------------------------------------|
b]-------10--------------------------11-10-|
g]----------10----12-9--------9-12-9-------|
d]-----0-------10------10-7-8--------------|
a]---0-------------------------------------|
d]-0---------------------------------------|

e]-----------------------------------------|
b]-------10--------------------------------|
g]----------10----12-9--------9-12-9----9--|
d]-----0-------10------10-7-8--------10----|
a]---0-------------------------------------|
d]-0---------------------------------------|

e]-----------------------------------------|
b]-------10--------------------------11-10-|
g]----------10----12-9--------9-12-9-------|
d]-----0-------10------10-7-8--------------|
a]---0-------------------------------------|
d]-0---------------------------------------|

e]-----------------------------------------|
b]-------10--------------------------------|
g]----------10----12-9--------9-12-9--9----|
d]-----0-------10------10-7-8---------10---|
a]---0-------------------------------------|
d]-0---------------------------------------|

e]------------------------------------|
b]------------------------------------|
g]-12-14-14-14-12-14------(-1)--------|
d]-12-12-12-12-12-12------------------|
a]--------------------Play-Above-Nut--|
d]------------------------------------|

e]---------------------------------------------|
b]--------------------15----15----17-----------|
g]-12-14-14-14-12-14-----14----14----14--------|
d]-12-12-12-12-12-12---------------------------|
a]---------------------------------------------|
d]---------------------------------------------|

e]---------------------15-----------------17\-|
b]------------------------13--18-17-15-14-----|
g]-12-14-14-14-12-14--------------------------|
d]-12-12-12-12-12-12--------------------------|
a]--------------------------------------------|
d]--------------------------------------------|

e]--------------------------------------------|
b]--------------------------15-14-15----15-17-|
g]-12-14-14-14-12-14-----14----------14-------|
d]-12-12-12-12-12-12--15----------------------|
a]--------------------------------------------|
d]--------------------------------------------|

e]---------------------------------|
b]---------------------------------|
g]---------------------------------|
d]-10-12-12-12-10-12\--0-[3]-0-[3]-|
a]-10-12-12-12-10-12\--0-[3]-0-[3]-|
d]-10-12-12-12-10-12\--0-[3]-0-[3]-| [[3] = hammer on harmonics]

e]---------------------------------------|
b]---------------------------------------|
g]---------------------------------------|
d]-10-12-12-12-10-12\--0-[3]-0-[3]-0-[3]-|
a]-10-12-12-12-10-12\--0-[3]-0-[3]-0-[3]-|
d]-10-12-12-12-10-12\--0-[3]-0-[3]-0-[3]-|

Final chorus

e]--------------------------------|
b]--------------------------------|
g]-7----------5-------------------|
d]-8--(x16)---5--(x16)--3---------|
a]-6----------3---------3--(x16)--|
d]----------------------3---------|

e]--------------------------------|
b]--------------------------------|
g]-7----------5-------------------|
d]-8--(x16)---5--(x16)--5---------|
a]-6----------3---------5--(x16)--|
d]----------------------5---------|

Repeat

e]---------------|
b]---------------|
g]---------------|
d]-3-5-5-5-3-5-\-|
a]-3-5-5-5-3-5-\-|
d]-3-5-5-5-3-5-\-|
Comments