Biffy Clyro - Justboy Chords & Tabs

 

Justboy Chords & Tabs

Biffy Clyro Chords & Tabs

Version: 3 Type: Tab 0 ratings
1 star 2 stars 3 stars 4 stars 5 stars
comments

Justboy Tab

   
justboy

Drop-D Tuning

Intro 

E|--------------------------------------------------------|
B|--------------------------------------------------------|
G|--6--6--6--6--6--7--------------------------------------|
D|--6--6--6--6--6--7--5--5--5--5--5--5--4--4--4--5--4--0--|
A|--4--4--4--4--4--5--5--5--5--5--5--5--4--4--4--5--4--0--|
D|--------------------5--5--5--5--5--5--4--4--4--5--4--0--|

VERSE

E|------------------------------------------------------------
B|------------------------------------------------------------
G|------------------------------------------------------------
D|--77----77----77-----77----77----77----77----77-------------
A|5-----5-----4-----4^5----5-----5-----5-----5----------------
D|-------------------------5-----5-----5-----5----------------

PINCH HARMONICS - when the others kick in
E|------------------------------------------------------------
B|15-14------14-15----------15-14-----------------------------
G|------12---------14-12----------12------14-12---------------
D|-------------------------------------12---------------------
A|------------------------------------------------------------
D|------------------------------------------------------------

EVERY ONCE IN A WHILE I SEE YOUR FACE, I'M FEELING HALF THE MAN
THEN YOU CUP YOUR HANDS, YOU THROW ME AWAY, I'M UNDER.
BUT THEN EVERYTHING BENEATH ME FAILS, I'M FEELING HALF THE MAN
THEN YOU SHUT YOUR EYES YOU CLOSE ME AWAY, I'M UNDER.


BRIDGE
E|------------------------------------------------------------
B|------------------------------------------------------------
G|------------------------------------------------------------
D|2-2-2---5-5-5---2-2-2---5-5-5-------------------------------
A|2-2-2---5-5-5---2-2-2---5-5-5-------------------------------
D|2-2-2---5-5-5---2-2-2---5-5-5-------------------------------

I'M ALONE WITH THESE THOUGHTS OF MINE
PEOPLE LOOK AND TELL ME JUSTBOY


CHORUS
E|------------------------------------------------------------
B|------------------------------------------------------------
G|2-7-6-7-7-7-7-7---------7-7-7-7-----------------------------
D|0-x-x-x-5-5-5-5-9-9-7-7-5-5-5-5-----------------------------
A|0-5-4-5-5-5-5-5-9-9-7-7-5-5-5-5-----------------------------
D|0-0-0-0-5-5-5-5-9-9-7-7-5-5-5-5-----------------------------

I DON'T BELIEVE IN ANYTHING
THAT'S THE MESSAGE IN YOUR EYES (IN YOUR EYES)
I DON'T BELIEVE IN ANYTHING
THAT'S THE MESSAGE IN YOUR EYES


[ Tab from: http://www.guitartabs.cc/tabs/b/biffy_clyro/justboy_tab_ver_3.html ]
VERSE
E|------------------------------------------------------------
B|------------------------------------------------------------
G|------------------------------------------------------------
D|--77----77----77-----77----77----77----77----77-------------
A|5-----5-----4-----4^5----5-----5-----5-----5----------------
D|-------------------------5-----5-----5-----5----------------

I HAVE TRIED SO HARD TO LEAVE THIS PLACE
IT LEAVES ME UNDERHIGH
I WANT TO FEEL YOUR BREATH HERE WITH ME
AND KISS YOU




BRIDGE
E|------------------------------------------------------------
B|------------------------------------------------------------
G|------------------------------------------------------------
D|2-2-2---5-5-5---2-2-2---5-5-5-------------------------------
A|2-2-2---5-5-5---2-2-2---5-5-5-------------------------------
D|2-2-2---5-5-5---2-2-2---5-5-5-------------------------------

I'M ALONE WITH THESE THOUGHTS OF MINE
PEOPLE LOOK AND TELL ME JUSTBOY



CHORUS
E|------------------------------------------------------------
B|------------------------------------------------------------
G|2-7-6-7-7-7-7-7---------7-7-7-7-----------------------------
D|0-x-x-x-5-5-5-5-9-9-7-7-5-5-5-5-----------------------------
A|0-5-4-5-5-5-5-5-9-9-7-7-5-5-5-5-----------------------------
D|0-0-0-0-5-5-5-5-9-9-7-7-5-5-5-5-----------------------------

I DON'T BELIEVE IN ANYTHING
THAT'S THE MESSAGE IN YOUR EYES (IN YOUR EYES)
I DON'T BELIEVE IN ANYTHING
THAT'S THE MESSAGE IN YOUR EYES



MIDDLE-8
E|------------------------------------------------------------
B|------------------------------------------------------------
G|6-7-2-9-----6-7-2-9-----77777766----------------------------
D|4-5-0-7-7-5-4-5-0-7-7-5-4-5-0-7-7-5-7-97-0------------------
A|4-5-0-7-4-5-4-5-0-7-4-5-4-5-0-7-4-5-7-97-0------------------
D|4-5-0-7-4-5-4-5-0-7-4-5-4-5-0-7-4-5-7-97-0------------------



OUTRO
E|------------------------------------------------------------
B|------------------------------------------------------------
G|----9-9-7-7-7-7---------------------------------------------
D|0-0-7-7-7-7-5-5---------------------------------------------
A|0-0-7-7-4-4-5-5---------------------------------------------
D|0-0-7-7-4-4-5-5---------------------------------------------

I AM HOPING THROUGH THE DARK CLOUDS
LIGHT SHALL BREAK AND BRING A BRIGHT SKY
I AM HOPING THROUGH THE DARK CLOUDS
LIGHT SHALL BREAK AND BRING A BRIGHT SKY
I AM HOPING THROUGH THE DARK CLOUDS
LIGHT SHALL BREAK AND BRING A BRIGHT SKY



LAST 'A' CHORD
E|------------------------------------------------------------
B|------------------------------------------------------------
G|-----69676--------------------------------------------------
D|7-----------------------------------------------------------
A|7-----------------------------------------------------------
D|7-----------------------------------------------------------

LIGHT SHALL RBEAK AND BRING A BRIGHT SKY

MOJO
Comments