Biffy Clyro - Justboy Chords & Tabs

 

Justboy Chords & Tabs

Biffy Clyro Chords & Tabs

Version: 2 Type: Tab 0 ratings
1 star 2 stars 3 stars 4 stars 5 stars
comments

Justboy Tab

---------------------------------------------------------------------
		     Biffy Clyro= Just boy
---------------------------------------------------------------------
      
OK!After some time and checking ive finally got justboy finished.
so whoevers been asking for it(a lot of ppl hav bin asking me if i 
had justboy etc.) its here!doesnt take much to work out how the effects.
So i'll leave that to you!(tombuttcrunch116@hotmail.com).

intro
e|-----------------------------------------------------------------
b|-----------------------------------------------------------------
g|---6-6-6-6-6-6-6-6-7-7-7-7-7-7-7-7----------6/11\7---------------
d|---6-6-6-6-6-6-6-6-7-7-7-7-7-7-7-7--0-0-0-5-6/11\7---------------
a|---4-4-4-4-4-4-4-4-5-5-5-5-5-5-5-5--0-0-0-5-4/9-\5---------------
D|------------------------------------0-0-0-5----------------------

Verse
e|-----------------------------------------------------------------
b|-----------------------------------------------------------------
g|-----------------------------------------------------------------
d|-----7-7---7-7---7-7-----7-7---7-7---7-7---7-7---7-7-------------
a|---5-----5-----4-----4/5---------------------------(x a few)-----
D|-----------------------------5-----5-----5-----5-----------------
Every once a while i'll see your face, im feeling
half the man.
Then you cup your hands you throw me away
im under.

e|-----------------------------------------------------------------
b|-----------------------------------------------------------------
g|-----------------------------------------------------------------
d|-----7-7---7-7---7-7-----7-7---7-7---7-7---7-7---7-7-------------
a|---5-----5-----4-----4/5---------------------------(x a few)-----
D|-----------------------------5-----5-----5-----5-----------------
But then everything beneath me fades im feeling half the man.
Then you shut your eyes you throw me away, im under.

bridge
e|-----------------------------------------------------------------
b|-----------------------------------------------------------------
g|-----------------------------------------------------------------
d|---2-2-2-2-2-2-5-5-5-5-5-5-2-2-2-2-2-2-5-5-5-5-5-5---------------
a|---2-2-2-2-2-2-5-5-5-5-5-5-2-2-2-2-2-2-5-5-5-5-5-5---------------
D|---2-2-2-2-2-2-5-5-5-5-5-5-2-2-2-2-2-2-5-5-5-5-5-5---------------
all and over these thoughts of mine, 
people look and tell me justboy.

chorus
e|-----------------------------------------------------------------
b|-----------------------------------------------------------------
g|-----------------------------------------------------------------
d|---7--7-7-7-7--7--7-7-7-7--6--6-6-6-6-6/7--7-7--5-5-5-5-5-5-5-5--
a|---5--5-5-5-5--5--5-5-5-5--4--4-4-4-4-4/5--5-5--5-5-5-5-5-5-5-5--
D|------------------------------------------------5-5-5-5-5-5-5-5--

e|-----------------------------------------------------------------
b|-----------------------------------------------------------------
g|--------------------4--4-4-4-4--4--4-4-4-4--2--2-2-2-2--2--2-2-2-
d|---5-5-5-5-5-5-5-5--4--4-4-4-4--4--4-4-4-4--2--2-2-2-2--2--2-2-2-
a|---5-5-5-5-5-5-5-5--2--2-2-2-2--2--2-2-2-2--0--0-0-0-0--0--0-0-0-
D|---5-5-5-5-5-5-5-5-----------------------------------------------

e|-----------------------------------------------------------------
b|-----------------------------------------------------------------
g|---2-------------------------------------------------------------
d|---2--5-5-5-5-5-5-5-5-5-5-5-5-5-5-5-5-5--------------------------
a|---0--5-5-5-5-5-5-5-5-5-5-5-5-5-5-5-5-5--------------------------
D|------5-5-5-5-5-5-5-5-5-5-5-5-5-5-5-5-5--------------------------
I don't believe in anything, thats the message in your eyes.

Verse
e|-----------------------------------------------------------------
b|-----------------------------------------------------------------
g|-----------------------------------------------------------------
d|-----7-7---7-7---7-7-----7-7---7-7---7-7---7-7---7-7-------------
a|---5-----5-----4-----4/5---------------------------(x 2)---------
D|-----------------------------5-----5-----5-----5-----------------
I have tried so hard to leave this place, it leaves me underhad.
[ Tab from: http://www.guitartabs.cc/tabs/b/biffy_clyro/justboy_tab_ver_2.html ]
e|-----------------------------------------------------------------
b|-----------------------------------------------------------------
g|-----------------------------------------------------------------
d|-----7-7---7-7---7-7-----7-7---7-7---7-7---7-7---7-7-------------
a|---5-----5-----4-----4/5---------------------------(x 2)---------
D|-----------------------------5-----5-----5-----5-----------------
I want to feel your back here with me, and kiss you.
fill(after chorus2)
e|-----------------------------------------------------------------
b|-----------------------------------------------------------------
g|-----------------------------------------------------------------
d|---4--4-4--4--4-4-4-4--5--5-5--5--5-5-5-5--0--0-0--0--0-0-0-0--7-
a|---4--4-4--4--4-4-4-4--5--5-5--5--5-5-5-5--0--0-0--0--0-0-0-0--7-
D|---4--4-4--4--4-4-4-4--5--5-5--5--5-5-5-5--0--0-0--0--0-0-0-0--7-

e|-----------------------------------------------------------------
b|-----------------------------------------------------------------
g|-----------------------------------------------------------------
d|---7-7--7--7-7-7-7-----------------------------------------------
a|---7-7--7--7-7-7-7-----------------------------------------------
D|---7-7--7--7-7-7-7-----------------------------------------------

gtr2(over top)3:05
e|-----------------------------------------------------------------
b|-----------------------------------------------------------------
g|---7-7-7-7-7-7-7-7-7-7-7-7-7-7-7-7-6-6-6-6/7-\6-2-2-2-2-2-2-2-2--
d|-----------------------------------------------------------------
a|---5-5-5-5-5-5-5-5-5-5-5-5-5-5-5-5-4-4-4-4/5-\4-0-0-0-0-0-0-0-0--
D|-----------------------------------------------------------------

e|-----------------------------------------------------------------
b|-----------------------------------------------------------------
g|---7-7-7-7/9\7---------------------------------------------------
d|-----------------------------------------------------------------
a|---5-5-5-5/7\5---------------------------------------------------
D|-----------------------------------------------------------------

e|-----------------------------------------------------------------
b|-----------------------------------------------------------------
g|-----------------------------------------------------------------
d|---0-0-0-0-0-0-0-0-0-7-7-7-7-7-7-7-7-4-4-4-4-4-4-4-4-5-5-5-5-5-5-
a|---0-0-0-0-0-0-0-0-0-7-7-7-7-7-7-7-7-4-4-4-4-4-4-4-4-5-5-5-5-5-5-
D|---0-0-0-0-0-0-0-0-0-7-7-7-7-7-7-7-7-4-4-4-4-4-4-4-4-5-5-5-5-5-5-

e|-----------------------------------------------------------------
b|-----------------------------------------------------------------
g|-----------------------------------------------------------------
d|---5-5-----------------------------------------------------------
a|---5-5-----------------------------------------------------------
D|---5-5-----------------------------------------------------------
I am hoping through the dark clouds, night shall break and bring a bright sky.

4:06
e|-----------------------------------------------------------------
b|-----------------------------------------------------------------
g|-----------------------------------------------------------------
d|---7-7-7-7-7-7-7-7-7-7-7-7/12-14-11-11-12-11-11-14-11-11-12-11-11
a|---5-5-5-5-5-5-5-5-5-5-5-5/10-12-12-12-12-12-12-12-12-12-12-12-12
D|-----------------------------------------------------------------

e|-----------------------------------------------------------------
b|-----------------------------------------------------------------
g|-----------------------------------------------------------------
d|---1111111111111111111111111111111112-12-12-12-12-12-12-12-12-12-
a|---9-9-9-9-9-9-9-9-9-9-9-9-9-9-9-9-10-10-10-10-10-10-10-10-10-10-
D|-----------------------------------------------------------------
night shall break and bring a bright sky.

e|-----------------------------------------------------------------
b|-----------------------------------------------------------------
g|-----------------------------------------------------------------
d|---12-12-12-12-12-12-12---7--------------------------------------
a|---10-10-10-10-10-10-10---5--------------------------------------
D|-----------------------------------------------------------------


=====================================================================
Comments