Biffy Clyro - Justboy Chords & Tabs

 

Justboy Chords & Tabs

Biffy Clyro Chords & Tabs

Version: 1 Type: Tab 0 ratings
1 star 2 stars 3 stars 4 stars 5 stars
comments

Justboy Tab

   
Biffy Clyro  --- Just Boy (album version)
Tunning Drop D (D A D G B e)


Ok this is the first Tab i have put up on the net if you have any
Quenstions or comments E-mail (roadKillmac73@aol.com)
there are one or two bits missing but the important bits are there. 


Intro
E|-----------------------------|
B|-----------------------------|
G|-----------------------------|
D|--7-----7-----------5-4-2-0--|
A|--4-----5-----5-----5-4-2-0--|
D|--------5-----4-----5-4-2-0--|

Verse
E|-------------------------------------------------------|
B|-------------------------------------------------------|
G|-------------------------------------------------------|
D|----7-7---7-7---7-7-----7-7----7-7---7-7----7-7---7-7--|
A|--5-----5-----4-----4h5--------------------------------|
D|---------------------------0h5------5-----5-----5------|

Bridge
E|---------------------------|
B|---------------------------|
G|---------------------------|
D|--2-----4/5-----2-----4/5--|
A|--2-----4/5-----2-----4/5--|
D|--2-----4/5-----2-----4/5--|
[ Tab from: http://www.guitartabs.cc/tabs/b/biffy_clyro/justboy_tab.html ]
Chorus
E|--------------------------------------|
B|--------------------------------------|
G|--------6--7--------------------------|
D|--0--------------5-----9-----7-----5--|
A|--0-----4--5-----5-----9-----7-----5--|
D|--0--------------5-----9-----7-----5--|

Middle bit
Gtr 1
E|-----------------------------------|
B|-----------------------------------|
G|-----------------------------------|
D|--------5-----0-----7-----7-----7--|
A|--5-----5-----0-----7-----4-----5--|
D|--4-----5-----0-----7--------------|  x3

Gtr 2 (1st + 2nd time as above, 3rd time as below)
E|-----------------------------------|
B|-----------------------------------|
G|--7-----------------6--------------|
D|--------------------------7-----7--|
A|--5-----------------4-----4-----5--|
D|-----------------------------------|

Gtr 1
E|--------------------|
B|--------------------|
G|--------------------|
D|--------5--4--2--0--|
A|--5-----5--4--2--0--|
D|--4-----5--4--2-----|

Gtr 2
E|--------------------|
B|--------------------|
G|--7-----------9-----|
D|-----------------0--|
A|--5-----------7--0--|
D|--------------------|

Outro (I am hoping through.........)
E|-----------------------|
B|-----------------------|
G|-----------------------|
D|--0-----7-----------5--|
A|--0-----7-----5-----5--|
D|--0-----7-----4-----5--|
				
Comments