Biffy Clyro - Justboy Chords & Tabs

 

Justboy Chords & Tabs

Biffy Clyro Chords & Tabs

Version: 1 Type: Bass Tab 0 ratings
1 star 2 stars 3 stars 4 stars 5 stars
comments

Justboy Bass Tab

   
Intro:
G:-----------------------------------------------------
D:-----------------------------------------------------
A:-4-444-45-------------------------------------------- 
D:-----------5-555-5-0-000-0-7-777-7-4-444-4-5-555-5-7-

0:42
G:--------------------------------
D:--------------------------------
A:-5-555-5------------------------ 3 times
D:---------7-777-7-5-555-5-555-5--

G:--------------------------------
D:--------------------------------
A:--------------------------------
D:-0-000-0-7-777-7-5-555-5-555----  

G:--------------------------------
D:--------------------------------
A:-------------------------------- 
D:-2-2-2-2-2-5-5-5-5-5-22222-55555

Chorus
G:----------------------------------------------------------
D:----------------------------------------------------------
A:-55555-4444-55555----------------------------------------- 2 times
D:------------------5-555-5-555--9-999-9-7-777-7-5-555-5-555

Verse
G:-------------------------------
D:--------7--------7-------------
A:-5-5-5------------------------- 5 times
D:----------7-7-7-----5-5-5-5-5-5

G:--------------------
D:--------------------
A:-----------5-4------ 1 time
D:-0000-4444-----55555

G:-----------------------------------
D:-----------------------------------
A:----------------------------------- 1 times
D:-2-2-2-2-2-5-5-5-5-5-22222-55555-77

Chorus
G:----------------------------------------------------------
D:----------------------------------------------------------
A:-55555-4444-55555----------------------------------------- 2 times
D:------------------5-555-5-555--9-999-9-7-777-7-5-555-5-555
[ Tab from: http://www.guitartabs.cc/tabs/b/biffy_clyro/justboy_btab.html ]
Bridge
G:----------------------
D:----------------------
A:---------------------- 1 time
D:-4444-5555-00000-77777

G:-----------------------------------------------
D:-----------------------------------------------
A:-4444-4444-5----------------------------------- 2 times
D:-------------5555555-44444-55555-00000-4-5-7777

G:---------------------------------
D:---------------------------------
A:-4444-4444-5--------------------- 1 time
D:-------------5555555-4444-5-4-2-0

Outro
G:------------------------
D:------------------------
A:------------------------ 3 times
D:-00000-77777-44444-55555

G:---------------------------
D:---------------------------
A:--------------------------- 1 times
D:-00000-4-5-7777-4444-5----0

every once in a while i see your face, i'm feeling half the man
then you cup your hands you throw me away, i'm under

but then everything beneath me fails, i'm feeling half the man
then you shut your eyes, you close me away, i'm under

i'm alone with these thoughts of mine
people look and tell me justboy

i don't believe in anything
that's the message in your eyes
i don't believe in anything
that's the message in your eyes

i have tried so hard to leave this place, im felling under?high?
i want to catch your breath here again, and kiss you

i'm alone with these thoughts of mine
people look and tell me justboy

i don't believe in anything
that's the message in your eyes
i don't believe in anything
that's the message in your eyes

i am hoping through the dark clouds
light shall break and bring a bright sky
i am hoping through the dark clouds
light shall break and bring a bright sky
i am hoping through the dark clouds
light shall break and bring a bright sky

light shall break and bring a bright sky
Comments