Biffy Clyro - Iname Chords & Tabs

 

Iname Chords & Tabs

Biffy Clyro Chords & Tabs

Version: 2 Type: Tab 0 ratings
1 star 2 stars 3 stars 4 stars 5 stars
comments

Iname Tab

   
Iname - this is from Biffy Clyro's first single

1st verse
[played acoustic]

"i like to be in a bucket of pee"
e]-------------|
b]-------------|
g]-------------|
d]-----0---4---|
a]---0---3---3-|
d]-0-----------| (*11)

"i'm over you"
e]------------------------------------------------|
b]------------------------------------------------|
g]------------------------------------------------|
d]-----0---4---------------5-5-5-5-5-5------0---4-|
a]---0---3---2-3-3-3-3-3-3-3-3-3-3-3-3----0---3---|
d]-0---------2-3-3-3-3-3-3--------------0---------|

"i'm over"
e]-------------------------------------|
b]-------------------------------------|
g]-------------------------------------|
d]-----0---4---------------5-5-5-5-5-5-|
a]---0---3---2-3-3-3-3-3-3-3-3-3-3-3-3-|
d]-0---------2-3-3-3-3-3-3-------------|


2nd verse
[distortion]

"i'd like to bring all the love that i feel..."
e]--------------|
b]--------------|
g]-------55-5-5-|
d]-0-0-0-55-5-5-|
a]-0-0-0-33-3-3-|
d]-0-0-0--------| (*11)


chorus

"i'm over you, i'm over you"
e]------------------------------------------------------------------|
b]------------------------------------------------------------------|
g]-------5------------------5-5-5-5-5-5-----------------7-7-7-7-7-7-|
d]-0-0-0-5-0-2-3-3-3-3-3-3--5-5-5-5-5-5-2-3-5-5-5-5-5-5-7-7-7-7-7-7-|
a]-0-0-0-3-0-2-3-3-3-3-3-3--3-3-3-3-3-3-2-3-5-5-5-5-5-5-5-5-5-5-5-5-|
d]-0-0-0---0-2-3-3-3-3-3-3--------------2-3-5-5-5-5-5-5-------------|

"till the memories come creeping in"
e]---------------------------|
b]---------------------------|
g]---------------------------|
d]-8-8-8-8-8-8-3-3-3-3-3-3-3-|
a]-8-8-8-8-8-8-3-3-3-3-3-3-3-|
d]-8-8-8-8-8-8-3-3-3-3-3-3-3-|


2nd verse

"i'd like to be on a bucket of pee..."
e]--------------|
b]--------------|
g]-------55-5-5-|
d]-0-0-0-55-5-5-|
a]-0-0-0-33-3-3-|
d]-0-0-0--------| (*11)


chorus

"i'm over you, i'm over you"
e]-----------------------------------------------------------------|
b]-----------------------------------------------------------------|
g]-------5-----------------5-5-5-5-5-5-----------------7-7-7-7-7-7-|
d]-0-0-0-5-0-2-3-3-3-3-3-3-5-5-5-5-5-5-2-3-5-5-5-5-5-5-7-7-7-7-7-7-|
a]-0-0-0-3-0-2-3-3-3-3-3-3-3-3-3-3-3-3-2-3-5-5-5-5-5-5-5-5-5-5-5-5-|
d]-0-0-0---0-2-3-3-3-3-3-3-------------2-3-5-5-5-5-5-5-------------|

"till the memories come creeping in"
e]---------------------------|
b]---------------------------|
g]---------------------------|
d]-8-8-8-8-8-8-3-3-3-3-3-3-3-|
a]-8-8-8-8-8-8-3-3-3-3-3-3-3-|
d]-8-8-8-8-8-8-3-3-3-3-3-3-3-|


e]--------------|
b]--------------|
g]-------55-5-5-|
d]-0-0-0-55-5-5-|
a]-0-0-0-33-3-3-|
d]-0-0-0--------|

"i'm over you, i'm over you"
e]-----------------------------------------------------------------|
b]-----------------------------------------------------------------|
g]-------5-----------------5-5-5-5-5-5-----------------7-7-7-7-7-7-|
d]-0-0-0-5-0-2-3-3-3-3-3-3-5-5-5-5-5-5-2-3-5-5-5-5-5-5-7-7-7-7-7-7-|
a]-0-0-0-3-0-2-3-3-3-3-3-3-3-3-3-3-3-3-2-3-5-5-5-5-5-5-5-5-5-5-5-5-|
d]-0-0-0---0-2-3-3-3-3-3-3-------------2-3-5-5-5-5-5-5-------------|

"till the memories come creeping in"
e]---------------------------|
b]---------------------------|
g]---------------------------|
d]-8-8-8-8-8-8-3-3-3-3-3-3-3-|
a]-8-8-8-8-8-8-3-3-3-3-3-3-3-|
d]-8-8-8-8-8-8-3-3-3-3-3-3-3-|


after chorus

e]------------------|
b]------------------|
g]------------------|
d]-0-0-0-5-0-44-4-4-|
a]-0-0-0-5-0-44-4-4-|
d]-0-0-0-5-0-44-4-4-| (*8)


verse
[ Tab from: http://www.guitartabs.cc/tabs/b/biffy_clyro/iname_tab_ver_2.html ]
"i will undo, half of the things that i should have been through"
e]--------------------------------------------------------------------------------------|
b]--------------------------------------------------------------------------------------|
g]------------------------------------5-5-5-5-5---------------------5-5-5-5-5-5-5-5-5-5-|
d]-5-5-5-5-5-10-10-10-10-10-3-3-3-3-3-5-5-5-5-5-8-8-8-8-8-3-3-3-3-3-5-5-5-5-5-5-5-5-5-5-|
a]-5-5-5-5-5-8--8--8--8--8--3-3-3-3-3-3-3-3-3-3-8-8-8-8-8-3-3-3-3-3-3-3-3-3-3-3-3-3-3-3-|
d]-5-5-5-5-5-8--8--8--8--8--3-3-3-3-3-----------8-8-8-8-8-3-3-3-3-3---------------------|

"i will have done, everything else that you needed to do"
e]--------------------------------------------------------------------------------------|
b]--------------------------------------------------------------------------------------|
g]---------------------5-5-5-5-5-7-7-7-7-7--------------------------5-5-5-5-5-5-5-5-5-5-|
d]-8-8-8-8-8-3-3-3-3-3-5-5-5-5-5-7-7-7-7-7-10-10-10-10-10-3-3-3-3-3-5-5-5-5-5-5-5-5-5-5-|
a]-8-8-8-8-8-3-3-3-3-3-3-3-3-3-3-5-5-5-5-5-8--8--8--8--8--3-3-3-3-3-3-3-3-3-3-3-3-3-3-3-|
d]-8-8-8-8-8-3-3-3-3-3---------------------8--8--8--8--8--3-3-3-3-3---------------------|

e]--------------|
b]--------------|
g]-------55-5-5-|
d]-0-0-0-55-5-5-|
a]-0-0-0-33-3-3-|
d]-0-0-0--------| (*12)


solo

e]-------------------------------------------------------|
b]----------------------------------------------------20-|
g]---19-----19-----19-----19-----19-----19-----19--------|
d]-0----0-0----0-0----0-0----0-0----0-0----0-0----0-0----|
a]-------------------------------------------------------|
d]-------------------------------------------------------|

e]------------------------------------------------------------------------|
b]-----------------20-----------------------------------------------------|
g]---19-----19------------19---19---19---19---19---19---19---19---19---19-|
d]-0----0-0----0-0----0-0----0----0----0----0----0----0----0----0----0----|
a]------------------------------------------------------------------------|
d]------------------------------------------------------------------------|


outro verse

e]---------------------------------------------------|
b]---------------------------------------------------|
g]-------------------------5-5-5--5/7-7--7/9-9--9/10-|
d]-3-3-3-3-3-3-0-0-0-0-0-0-x-x-x--x-x-x--x-x-x--x-x--|
a]-3-3-3-3-3-3-0-0-0-0-0-0-3-3-3--3/5-5--5/7-7--7/8--|
d]-3-3-3-3-3-3-0-0-0-0-0-0---------------------------|

e]------------------------------------------------------------|
b]------------------------------------------------------------|
g]------------------------------------------------------------|
d]-0-0-0-0-5-0-4--0-0-0-0-5-0-4--0-0-0-0-5-0-4--0-0-0-0-5-0-4-|
a]-0-0-0-0-5-0-4--0-0-0-0-5-0-4--0-0-0-0-5-0-4--0-0-0-0-5-0-4-|
d]-0-0-0-0-5-0-4--0-0-0-0-5-0-4--0-0-0-0-5-0-4--0-0-0-0-5-0-4-| (outro verse *2)


Iname Lyrics

Iname
I'd like to be in a bucket of pee until everything else is just fine.
You would believe what I cannot deceive until everything else is just mine.
I'm over you, I'm over...

I'd like to be all the love that I fell for the woman that keeps me alive.
You'd like to know what went into the hole, that covers me now I'm alive.
I'm over you, I'm over you, till the memories come creeping in.

I'd like to be in a bucket of pee until everything else is just fine.
You would believe what I cannot deceive until everything else is just mine.
I'm over you, I'm over you, till the memories come creeping in.
I'm over you, I'm over you, till the memories come creeping in.

I will not do half of the things that I should have been through.
I will have done, everything else with you, gave it to you, I gave it to...
Comments