Biffy Clyro - Iname Chords & Tabs

 

Iname Chords & Tabs

Biffy Clyro Chords & Tabs

Version: 1 Type: Tab 0 ratings
1 star 2 stars 3 stars 4 stars 5 stars
comments

Iname Tab

Intro
e|-----------------------|
B|-----------------------|
G|-----------------------|
D|-----0---4-------------|x11
A|---0---3---3-----------|
D|0----------------------|

A|--------------------------------------------------|
B|--------------------------------------------------|
G|--------------------------------------------------|
D|-0-2-3-3----------0---4-------0---4----0-1-2-2-2--|x1
A|-0-2-3-3--------0---3---3---0---3----3-0-1-2-2-2--|
D|-0-2-3-3------0-----------0------------0-1-2-2-2--|
  

Chorus
e|-----------------------------------------------------------|
B|-----------------------------------------------------------|
G|--------5-5-5---------5-5-5--------5-5-5--------5-5-5------|x3
D|-0-0-0--5-5-5--0-0-0--5-5-5-0-0-0--5-5-5-0-0-0--5-5-5-0-0-0|
A|-0-0-0--3-3-3--0-0-0--3-3-3-0-0-0--3-3-3-0-0-0--3-3-3-0-0-0|
D|-0-0-0---------0-0-0--------0-0-0--------0-0-0--------0-0-0|
  

A|------------------------|
B|------------------------|
G|-5-------5-5------------|x1
D|-5-0-2-3-5-3-0-5--------|
A|-3-0-2-3-3-3-0-5--------|
D|---0-2-3-----0-5--------|
                                        
e|-----------------------------------------------------------|
B|-----------------------------------------------------------|
G|--------5-5-5---------5-5-5--------5-5-5--------5-5-5------|x3
D|-0-0-0--5-5-5--0-0-0--5-5-5-0-0-0--5-5-5-0-0-0--5-5-5-0-0-0|
A|-0-0-0--3-3-3--0-0-0--3-3-3-0-0-0--3-3-3-0-0-0--3-3-3-0-0-0|
D|-0-0-0---------0-0-0--------0-0-0--------0-0-0--------0-0-0|
[ Tab from: http://www.guitartabs.cc/tabs/b/biffy_clyro/iname_tab.html ]
A|-----------------------------------------------------------|
B|-----------------------------------------------------------|
G|-5-------5-5-----5-5-5-------5-5-5-------5-------5-5-------|   
D|-5-0-2-3-5-3-0-5-5-5-5-0-0-0-5-5-5-0-0-0-5-0-2-3-5-3-0-5---|x1
A|-3-0-2-3-3-3-0-5-3-3-3-0-0-0-3-3-3-0-0-0-3-0-2-3-3-3-0-5---|
D|---0-2-3-----0-5-------0-0-0-------0-0-0---0-2-3-----0-5---|
 
Break
A|-------------------------------|
B|-------------------------------|
G|-------------------------------|
D|--0-5-4-0-4-4-4----------------|x8
A|--0-5-4-0-4-4-4----------------|
D|--0-5-4-0-4-4-4----------------|
           
Middel
A|--------------------------------------------------|
B|--------------------------------------------------|
G|-----------------------5-5-5---------------5-5-5-5|
D|--5-5-5--8-8-8--3-3-3--5-5-5--8-8-8--3-3-3-5-5-5-5|x2
A|--5-5-5--8-8-8--3-3-3--3-3-3--8-8-8--3-3-3-3-3-3-3|
D|--5-5-5--8-8-8--3-3-3---------8-8-8--3-3-3--------|

e|-----------------------------------------------------------|
B|-----------------------------------------------------------|
G|--------5-5-5---------5-5-5--------5-5-5--------5-5-5------|x3
D|-0-0-0--5-5-5--0-0-0--5-5-5-0-0-0--5-5-5-0-0-0--5-5-5-0-0-0|
A|-0-0-0--3-3-3--0-0-0--3-3-3-0-0-0--3-3-3-0-0-0--3-3-3-0-0-0|
D|-0-0-0---------0-0-0--------0-0-0--------0-0-0--------0-0-0|

A|------------------------                      |--15----13-----|
B|------15----15----15----                      |-----14--------|
G|----14---14----14-------Play for a bit then   |---------------|
D|--0---------------------                      |---------------|
A|------------------------                      |---------------|
D|------------------------                      |---------------|

Outro  
e|-----------------------------------------------------------|
B|-----------------------------------------------------------|
G|------------------5-5/-7-7-/-9-9-/-10----------------------|  
D|--5-5--5--0-0-0---0-0--0-0---0-0---0---0-4-4--0-4-4--------|2x 
A|--3-3--3--0-0-0---3-3/-5-5-/-7-7-/-8---0-4-4--0-4-4--------|
D|--0-0--0--0-0-0---0-0--0-0---0-0---0---0-4-4--0-4-4--------|
    


i'd like to be in a bucket of pee until everything else is just fine
you would believe what i cannot deceive until everything else is just mine

i am over you
i am over

i'd like to be all the love that i feel for the woman who keeps me alive
you'd like to know what went into the home that covers me now i'm alive

i am over you
i am over you
til the memories complete iname

i'd like to be in a bucket of pee until everything else is just fine
you would believe what i cannot deceive until everything else is just mine

i am over you
i am over you
til the memories complete iname

i am over you
i am over you
til the memories complete iname

i will undo half of the things that i should've been through
i will have done everything else that you needed to do
needed to
Comments