Biffy Clyro - Hope For An Angel Chords & Tabs

 

Hope For An Angel Chords & Tabs

Biffy Clyro Chords & Tabs

Version: 1 Type: Tab 0 ratings
1 star 2 stars 3 stars 4 stars 5 stars
comments

Hope For An Angel Tab

Intro

E|-------------------------------------------|
B|-------------------------------------------|
G|--9\\7--7--7-----7--7--9\\6--6--6-----6--6-|
D|-------------------------------------------|
A|--7\\5--------5--------7\\4--------4-------|
D|-------------------------------------------|



E|----------------------------------------------|
B|----------------------------------------------|
G|----12----12----12----12-------11-11----11-11-|
D|----------------------------------------------|
A|-10----10----10----10----10\\9--------9-------|
D|----------------------------------------------|



E|----------------------------------------------------------------|
B|----------------------------------------------------------------|
G|----------------------------------------------------------------|
D|----------------------------------------------------------------|
A|----12-------12-12----12-------12-12-----9--------7--7-----5----|
D|-11----11--0-------11----11--0--------9-----9--7--------4-----4-|



E|-------------------------------------|
B|-------------------------------------|
G|-------------------------------------|
D|-------------------------------------|
A|-----5--5-----5--5-----5--5-----5----|  
D|--5--------5--------5--------5-----5-|



Verse 1-4



E|--------------------------------------------------------------------
B|-15-15-15-15-15-15-14-14-14-14-14-14-14-14-14-14-14-14-12-12-12-12--
G|-14-------14-------14-------14-------14-------14-------12-------12--
D|-12-------12-------12-------12-------14-------14-------12-------12--
A|--------------------------------------------------------------------
D|--------------------------------------------------------------------



Interlude

E|-------------------------------------------|
B|-------------------------------------------|
G|--9\\7--7--7-----7--7--9\\6--6--6-----6--6-|
D|-------------------------------------------|
A|--7\\5--------5--------7\\4--------4-------|
D|-------------------------------------------|



E|----------------------------------------------|
B|----------------------------------------------|
G|----12----12----12----12-------11-11----11-11-|
D|----------------------------------------------|
A|-10----10----10----10----10\\9--------9-------|
D|----------------------------------------------|



E|-------------------------------------------|
B|-------------------------------------------|
G|--9\\7--7----14-14-14--9\\6--6----14-14-14-|
D|-------------14-14-14-------------14-14-14-|
A|--7\\5-----5-12-12-12--7\\4-----4-12-12-12-|
D|--------------0--0--0--------------0--0--0-|




E|----------------------------------------------|
B|----------------------------------------------|
G|----12----12----12----12-------11-11----11-11-|
D|----------------------------------------------|
A|-10----10----10----10----10\\9--------9-------|
D|----------------------------------------------|

Verse 5-6

E|--------------------------------------------------------------------
B|-15-15-15-15-15-15-14-14-14-14-14-14-14-14-14-14-14-14-12-12-12-12--
G|-14-------14-------14-------14-------14-------14-------12-------12--
D|-12-------12-------12-------12-------14-------14-------12-------12--
A|--------------------------------------------------------------------
D|--------------------------------------------------------------------



Interlude 2

E|-------------------------------------------|
B|-------------------------------------------|
G|--9\\7--7--7-----7--7--9\\6--6--6-----6--6-|
D|-------------------------------------------|
A|--7\\5--------5--------7\\4--------4-------|
D|-------------------------------------------|



E|----------------------------------------------|
B|----------------------------------------------|
G|----12----12----12----12-------11-11----11-11-|
D|----------------------------------------------|
A|-10----10----10----10----10\\9--------9-------|
D|----------------------------------------------|



E|-------------------------------------------|
B|-------------------------------------------|
G|--9\\7--7--7-----7--7--9\\6--6--6-----6--6-|
D|-------------------------------------------|
A|--7\\5--------5--------7\\4--------4-------|
D|-------------------------------------------|



E|----------------------------------------------|
B|----------------------------------------------|
G|----12----12----12----12-------11-11----11-11-|
D|----------------------------------------------|
A|-10----10----10----10----10\\9--------9-------|
D|----------------------------------------------|



E|--------------------------------------------------------------------
B|--------------------------------------------------------------------
G|-11/14-14-14----14-14-14\13-13-13----13-13-13/16-16-16----16-16-1614
D|--------------------------------------------------------------------
A|--9/12-------12-------12\11-------11-------11/14-------14-------14--
D|--0--------------------0--------------------0--------------------0--


[ Tab from: http://www.guitartabs.cc/tabs/b/biffy_clyro/hope_for_an_angel_tab.html ]
E|--------------------------------------------------------------------
B|--------------------------------------------------------------------
G|----14-14-14\13-13-13----13-13-13/16-16-16----16-16-16\14-14-14-----
D|--------------------------------------------------------------------
A|-12-------12\11-------11-------11/14-------14-------14\12-------12--
D|-----------0--------------------0--------------------0--------------



Outro

E|--------------------------------------------------------------------
B|--------------------------------------------------------------------
G|--------------------------------------------------------------------
D|-----------0--0--0--0-11-11-11--0--0--0--0--9--9--9--7--7--7--7--4--
A|----12-----0--0--0--0-11-11-11--0--0--0--0--9--9--9--7--7--7--7--4--
D|-11----11--0--0--0--0-11-11-11--0--0--0--0--9--9--9--7--7--7--7--4--


E|--------------------------------------------------------------------
B|--------------------------------------------------------------------
G|--------------------------------------------------------------------
D|--5--5--5--5--5--5--5--5--5--5--5--5--5--5--5--5--5--5--5--5--5--5--
A|--5--5--5--5--5--5--5--5--5--5--5--5--5--5--5--5--5--5--5--5--5--5--
D|--5--5--5--5--5--5--5--5--5--5--5--5--5--5--5--5--5--5--5--5--5--5--



E|--------------------------------------------------------------------
B|--------------------------------------------------------------------
G|--------------------------------------------------------------------
D|-11-11-11--0--0--0--0-11-11-11--0--0--0--0--9--9--9--7--7--7--7--4--
A|-11-11-11--0--0--0--0-11-11-11--0--0--0--0--9--9--9--7--7--7--7--4--
D|-11-11-11--0--0--0--0-11-11-11--0--0--0--0--9--9--9--7--7--7--7--4--
                                                                   ^^
                                                                   |
After doing this --------------------------------------------------|
do this:

D -4-4-5-4-0-------------------------
A -4-4-5-4-0-------------------------
D -4-4-5-4-0-------------------------



E|--------------------------------------------------------------------
B|--------------------------------------------------------------------
G|--------------------------------------------------------------------
D|--5--5--5--5--5--5--5--5--5--5--5--5--5--5--5--5--5--5--5--5--5--5--
A|--5--5--5--5--5--5--5--5--5--5--5--5--5--5--5--5--5--5--5--5--5--5--
D|--5--5--5--5--5--5--5--5--5--5--5--5--5--5--5--5--5--5--5--5--5--5--



E|--------------------------------------------------------------------
B|--------------------------------------------------------------------
G|--------------------------------------------------------------------
D|-11-11-11--0--0--0--0-11-11-11--0--0--0--0--9--9--9--7--7--7--7--4--
A|-11-11-11--0--0--0--0-11-11-11--0--0--0--0--9--9--9--7--7--7--7--4--
D|-11-11-11--0--0--0--0-11-11-11--0--0--0--0--9--9--9--7--7--7--7--4--
                                                                   ^^
                                                                   |
After doing this --------------------------------------------------|
do this:

D -4-4-5-4-0-------------------------
A -4-4-5-4-0-------------------------
D -4-4-5-4-0-------------------------




E|--------------------------------------------------------------------
B|--------------------------------------------------------------------
G|--------------------------------------------------------------------
D|--5--5--5--5--5--5--5--5--5--5--5--5--5--5--5--5--5--5--5--5--5--5--
A|--5--5--5--5--5--5--5--5--5--5--5--5--5--5--5--5--5--5--5--5--5--5--
D|--5--5--5--5--5--5--5--5--5--5--5--5--5--5--5--5--5--5--5--5--5--5--



E|--------------------------------------------------------------------
B|--------------------------------------------------------------------
G|--------------------------------------------------------------------
D|-11-11-11--0--0--0--0-11-11-11--0--0--0--0--9--9--9--7--7--7--7--4--
A|-11-11-11--0--0--0--0-11-11-11--0--0--0--0--9--9--9--7--7--7--7--4--
D|-11-11-11--0--0--0--0-11-11-11--0--0--0--0--9--9--9--7--7--7--7--4--
                                                                   ^^
                                                                   |
After doing this --------------------------------------------------|
do this:

D -4-4-5-4-0-------------------------
A -4-4-5-4-0-------------------------
D -4-4-5-4-0-------------------------



E|--------------------------------------------------------------------
B|--------------------------------------------------------------------
G|--7--7--7--7--7--7--9--9--9--9--9--9-11-11-11-11-11-11-12-12-12-12--
D|--------------------------------------------------------------------
A|--5--5--5--5--5--5--7--7--7--7--7--7--9--9--9--9--9--9-10-10-10-10-|
D|--------------------------------------------------------------------



E|--------------------------------------------------------------------
B|--------------------------------------------------------------------
G|-14-14-14-14-14-14-16-16-16-16-16-16-19-19-18-19-19-18-19-19-18-19--
D|--------------------------------------------------------------------
A|-12-12-12-12-12-12-14-14-14-14-14-14-17-17-16-17-17-16-17-17-16-17--
D|--------------------------------------------------------------------



E|-------------------------------------------------------------|
B|-------------------------------------------------------------|
G|-------------------------------------------------------------|
D|-11-11-11--0-11-11-11--0-11-11-11--0-11-11-11--0-11-11-11--0-|
A|-11-11-11--0-11-11-11--0-11-11-11--0-11-11-11--0-11-11-11--0-|
D|-11-11-11--0-11-11-11--0-11-11-11--0-11-11-11--0-11-11-11--0-|


MOJO
Comments