Biffy Clyro - Hero Management Chords & Tabs

 

Hero Management Chords & Tabs

Biffy Clyro Chords & Tabs

Version: 1 Type: Tab 0 ratings
1 star 2 stars 3 stars 4 stars 5 stars
comments

Hero Management Tab

---------------------------------------------------------------------
		     Biffy Clyro= Hero Management
---------------------------------------------------------------------
      
Hey.Finally!Ive done antoher tab.i hope this is right.its pretty close.
plz give me any constructive comments.in other words if its wrong,
tell me where!(tombuttcrunch116@hotmail.com)

(0:02)
e|-----------
b|-------1---
g|-----4-----
d|---3-------
a|-----------
D|-----------

g|------------------------------------------
d|------------------------------------------
a|----------------4------11-----10------5---
E|------------------------------------------
REPEAT!

(0:32)
e|-----------
b|-----------
g|-------0---
d|-----3-----
a|---3-------
D|-----------

g|---------------------------
d|---------------------------
a|-----------5-----2----3----
D|---------------------------
repeat bass

and into:
(0:46)
e|-----------------------------------------------------------
b|-------1-----1-----1-----1-----1---1----1----1----1----1---
g|-----4-----4-----4-----4-----4-------1----1----1----1----1-
d|---3-----3-----3-----3-------------------------------------
a|-----------------------------------------------------------
D|-----------------------------------------------------------

e|-----------------------------------------------------------
b|---1----1---------0----0-----------------------------------
g|-----1----1----0----0----0-----2----2----2----2----2-------
d|----------------------------4----4----4----4----4----4-----
a|-----------------------------------------------------------
D|-----------------------------------------------------------

x3

(1:31)
e|-----------
b|-----------
g|-------0---
d|-----3-----
a|---3-------
D|-----------

g|---------------------------
d|---------------------------
a|-----------5-----2----3----
D|---------------------------

(1:42)
e|-------------------------------
b|-------------------------------
g|------2--0--------0-------0----
d|---0-----------0--------0------
a|------------2--------3---------
D|-------------------------------

g|-------------------------------
d|-------------------------------
a|---5--------2--------3---------
D|-------------------------------

(1:49)
e|-------------------------------------------------------------------
b|-------------0------------------0----------------------------------
g|-------------------------4--------0---------0----0----0----0----0--
d|------5-4---------5--------5----------5-------4----4----4----4----4
a|---7-------7----7-----5------5------5-----3----3-----3----3----3---
D|-------------------------------------------------------------------
x2

then into chords
(2:00)
e|--------------------------------------------------------------
b|--------------------------------------------------------------
g|---7--7-7--7-7--1111111---9--11111112-12-12-14-14-14-14-------
d|--------------------------------------------------------------
a|---3--3-3--3-3--9-9-9-9---7--9-9-9-10-10-10-12-12-12-12-------
D|--------------------------------------------------------------
x2

Gtr2 comes in
(2:15)
e|--------------------------------------------------------------
b|---3-----------3--3-----------3-------------------------------
g|-----4-------4------4-------4---------------------------------
d|--------5p4------------5p4------9--11-11-12-12-14-14-14-14----
a|--------------------------------7--9--9--10-10-12-12-12-12----
D|--------------------------------------------------------------

e|--------------------------------------------------------------
b|---3-----------3--3-----------3-------------------------------
g|-----4-------4------4-------4---------------------------------
d|--------5p4------------5p4------9--11-11-12-12-14-14-14-14/19-
a|--------------------------------7--9--9--10-10-12-12-12-12/17-
D|--------------------------------------------------------------

quiet bit
(2:30)
e|------------------------------------
b|---0--0--0--0--3--0--0--0--1--3-----
g|----0--0--0--0--0--0--0--0--0--0----
d|------------------------------------
a|------------------------------------
D|------------------------------------

e|------------------------------------
b|---0--0--0--0--1--0--0--0--0--0-----
g|----0--0--0--0--0--0--0--0--2--2----
d|------------------------------------
a|------------------------------------
D|------------------------------------

e|------------------------------------
b|---0--0--0--0--3--0--0--0--1--3-----
g|----0--0--0--0--0--0--0--0--0--0----
d|------------------------------------
a|------------------------------------
D|------------------------------------
[ Tab from: http://www.guitartabs.cc/tabs/b/biffy_clyro/hero_management_tab.html ]
e|------------------------------------
b|---0--0--0--0--1--0--0--------------
g|----0--0--0--0--0--0--0-7-7-7-7-7-7-
d|------------------------------------
a|------------------------5-5-5-5-5-5-
D|------------------------0-0-0-0-0-0-

both guitars
(2:59)
e|------------------------------------
b|------------------------------------
g|---5-5-5-5-5-5-5-5-5-5-5-5-5-5-5-5--
d|------------------------------------
a|---3-3-3-3-3-3-3-3-3-3-3-3-3-3-3-3--
D|------------------------------------

(3:02)
e|------------------------------------
b|------------------------------------
g|---4-4-4-4-4-4-4-4-4-4-4-9-9-9-7----
d|------------------------------------
a|---2-2-2-2-2-2-2-2-2-2-2-7-7-7-5----
D|------------------------------------

e|------------------------------------
b|------------------------------------
g|---4-4-4-4-4-4-4-4-4-4-4-5-5-5-7----
d|------------------------------------
a|---2-2-2-2-2-2-2-2-2-2-2-3-3-3-5----
D|------------------------------------

e|------------------------------------
b|------------------------------------
g|---4-4-4-4-4-4-4-4-4-4-4-11111111---
d|------------------------------------
a|---2-2-2-2-2-2-2-2-2-2-2-9-9-9-9----
D|------------------------------------

e|------------------------------------
b|------------------------------------
g|---4-4-4-4-4-4-4-4-4-4-4-4-/-16-----
d|------------------------------------
a|---2-2-2-2-2-2-2-2-2-2-2-2-/-14-----
D|------------------------------------

(3:17)
e|-----------------------------------------------
b|---------------------------------17-17-17------
g|---16-16-16-16-16-16-16-16-16-16----------19---
d|---------------------------------14-14-14------
a|---14-14-14-14-14-14-14-14-14-14----------17---
D|-----------------------------------------------

e|-----------------------------------------------
b|-----------------------------------------------
g|---16-16-16-16-16-16-16-16-16-16-17-17-17-19---
d|-----------------------------------------------
a|---14-14-14-14-14-14-14-14-14-14-15-15-15-17---
D|-----------------------------------------------

e|-----------------------------------------------------------------
b|-----------------------------------------------------------------
g|---111111111111111111111111111111111111111111111111-9-9-9-111111-
d|-----------------------------------------------------------------
a|---9-9-9-9-9-9-9-9-9-9-9-9-9-9-9-9-9-9-9-9-9-9-9-9--7-7-7-9-9-9--
D|-----------------------------------------------------------------


riffa(3:32)
gtr1
e|-------------------------------------------------------------------
b|-------------------------------------------------------------------
g|-------------------------------------------------------------------
d|---5-5-5-5-5-5-5-5-5-5-5-5-5-5-5-5-5-5-5-5-5-5-5-5-5-5-5-5-5-5-5-5-
a|---3-3-3-3-3-3-3-3-3-3-3-3-3-3-3-3-3-3-3-3-3-3-3-3-3-3-3-3-3-3-3-3-
D|-------------------------------------------------------------------

gtr2
e|-------8--------8--------8--------8----
b|-----8---8----8---8----8---8----8---8--
g|---5--------5--------5--------5--------
d|---------------------------------------      x2
a|---------------------------------------
D|---------------------------------------

e|--------------------------------------------------
b|--------------------------------------------------
g|---17-17-17-17-17-17-17-17-19--19--19--19--19-19--
d|--------------------------------------------------
a|---15-15-15-15-15-15-15-15-17--17--17--17--17-17--
D|--------------------------------------------------

(3:46)
e|---------------
b|---------------
g|---------5-----
d|---2--4--5-----  x2
a|---2--4--3-----
D|---2--4--------

e|------------------------------------------------
b|------------------------------------------------
g|---------5--9-9-9--7-7-7--4-4-4-----------------
d|---2--4--5--9-9-9--7-7-7--4-4-4--5-5-5----------     x2
a|---2--4--3--7-7-7--5-5-5--2-2-2--5-5-5----------
D|---2--4--------------------------5-5-5----------

e|------------------------------------------------
b|------------------------------------------------
g|------------------------------------7-7-7-4-4-4-
d|---2-2-2-2-2-2-0h2-2-2--2-2-2-2-2-2-7-7-7-4-4-4-     x4
a|---2-2-2-2-2-2-0h2-2-2--2-2-2-2-2-2-5-5-5-2-2-2-
D|---2-2-2-2-2-2-0h2-2-2--2-2-2-2-2-2-------------

e|------------------------------------------------
b|------------------------------------------------
g|---------------------4--------------7-7-7-4-4-4-
d|---2-2-2-2-2-2-0h2-2-2--2-2-2-2-2-2-7-7-7-4-4-4-     x4
a|---2-2-2-2-2-2-0h2-2-2--2-2-2-2-2-2-5-5-5-2-2-2-
D|---2-2-2-2-2-2-0h2-2-2--2-2-2-2-2-2-------------

and there ya have it!
 
=====================================================================
Comments