Biffy Clyro - Glitter And Trauma Chords & Tabs

 

Glitter And Trauma Chords & Tabs

Biffy Clyro Chords & Tabs

Version: 1 Type: Tab 0 ratings
1 star 2 stars 3 stars 4 stars 5 stars
comments

Glitter And Trauma Tab

Song: Glitter and Trauma
Band: Biffy Clyro
Album: Infinty Land
Tabber: Daniel King
Email: neo8549@hotmail.com

*If you have used this tab please rate

 *  Harmonic
(#) Bend note inside brackets

E|---------12-14--Repeat Over--|
B|-0-14-15---------------------|
G|-----------------------------|
D|-----------------------------|
A|-----------------------------|
D|-----------------------------|

E|------------------------------------------------------*12-|
B|------------------------------------------------------*12-|
G|----------------------------------------------------------|
D|--12--0--------12--0--------12--0--------12--0------------|
A|--12--0--(*8)--13--0--(*8)--15--0--(*8)--12--0--(*8)------|
D|--12--0--------12--0--------12--0--------12--0------------|

E|-------------------------|
B|----------------2--------|
G|----------------0--------|
D|--4--4----------3--(*10)-|
A|--2--2-2h3p2p0-----------|
D|-------------------------|

E|----0--------0------------0-------/-14----0--------0------------0-|
B|----0--------3----------0-------2-/-15----0--------3----------0---|
G|----6--------4--------0---------3-/-------6--------4--------0-----|
D|----7------4--------4--------0------------7------4--------4-------|
A|--0-5--2-2-2-2----5----------0----------0-5--2-2-2-2----5---------|
D|--0-0-----------5------------0----------0-0-----------5-----------|

E|--------------------------------------------0-0-0------------|
B|--------------------------------------------3-3-3------2-2-0-|
G|--------------------------------------------0-0-0------0-0-0-|
D|--0-12-0-12-0-12-0-12-0-12-0-12---------0-5-------(*2)-3-3-0-|
A|---------------------------------(*6)---0-5------------------|
D|--0-12-0-12-0-12-0-12-0-12-0-12---------0-5------------------|

E|-------------------------|
B|----------------2--------|
G|----------------0--------|
D|--4--4----------3--(*10)-|
A|--2--2-2h3p2p0-----------|
D|-------------------------|

[ Tab from: http://www.guitartabs.cc/tabs/b/biffy_clyro/glitter_and_trauma_tab.html ]
E|----0--------0------------0----14-/-------0--------0------------0-|
B|----0--------3----------0------15-/-2-----0--------3----------0---|
G|----6--------4--------0-----------/-3-----6--------4--------0-----|
D|----7------4--------4--------0------------7------4--------4-------|
A|--0-5--2-2-2-2----5----------0----------0-5--2-2-2-2----5---------|
D|--0-0-----------5------------0----------0-0-----------5-----------|

(hit each chord/octave 8 times)

E|--------------------------|
B|--------------------------|
G|-------9--4--------12--15-|
D|-2--4-----2--(*3)---------|
A|-2--4--7--2--------10--13-|
D|-2--4---------------------|

E|--------------------------------------------0-0-0-------|
B|--------------------------------------------3-3-3-------|
G|--------------------------------------------0-0-0-------|
D|--0-12-0-12-0-12-0-12-0-12-0-12---------0-5-------(*2)--|
A|--0-12-0-12-0-12-0-12-0-12-0-12--(*6)---0-5-------------|
D|--0-12-0-12-0-12-0-12-0-12-0-12---------0-5-------------|

E|-----------------------------------|
B|-----------------------------------|
G|-----------------------------------|
D|--3-0-7-0-3-0----7-0-3-0-7-0----2--|
A|--3-0-7-0-3-0----7-0-3-0-7-0----2--|
D|--3-0-7-0-3-0----7-0-3-0-7-0----2--|

(hit each chord/octave 8 times)

E|--------------------------------|
B|--------------------------------|
G|--11--9--4--------12--15-(15)---|
D|---------2----------------------|
A|--9---7--2--------10--13-(13)---|
D|--------------------------------|

E|------------------------0-0-0--|
B|---------10-/-17--------3-3-3--|
G|------|_Feedback_|------0-0-0--|
D|--0------------------5---------|
A|--0------------------5---------|
D|--0------------------5---------|

E|--------------------------------------------0-0-0-------|
B|--------------------------------------------3-3-3-------|
G|--------------------------------------------0-0-0-------|
D|--0-12-0-12-0-12-0-12-0-12-0-12---------0-5-------(*2)--|
A|--0-12-0-12-0-12-0-12-0-12-0-12--(*6)---0-5-------------|
D|--0-12-0-12-0-12-0-12-0-12-0-12---------0-5-------------|

E|-------------------------------------------|
B|-------------------------------------------|
G|-------------------------------------------|
D|--3-0-7-0-3-0-7-0-3-0-7-0-------6-5-4-3-2--|
A|--3-0-7-0-3-0-7-0-3-0-7-0--(*4)-6-5-4-3-2--|
D|--3-0-7-0-3-0-7-0-3-0-7-0-------6-5-4-3-2--|
Comments