Biffy Clyro - Convex Concave Chords & Tabs

 

Convex Concave Chords & Tabs

Biffy Clyro Chords & Tabs

Version: 3 Type: Tab 0 ratings
1 star 2 stars 3 stars 4 stars 5 stars
comments

Convex Concave Tab

song name - convex concave (biffy)
i think this is pretty much perfect its better than the other 2 tabs

beginning bit
e------------------------------------------------------|
b------------------------------------------------------|
g------------------------------------------------------|
d------------------------------------------------------|
a---0--5-5-5--repeat times 3 in the desired rythym-----|
d--0-0-3-3-3-------------------------------------------|

this is the 'used just once...and destroy' bit
e-----------------------------------------------------------|
B-----------------------------------------------------------|
G--6-----------6--------------6---7--6----------------------|
D--0---then----0----then------0---0--0----------------------|
A--x-----------x--------------x---5--x----------------------|
D--5-----------7--------------5---0--7----------------------|

e-----------------------------------------------------------|
B-----------------------------------------------------------|
G--6-----------6-------------7------9-----------------------|
D--0---then----0----then-----0------0-----------------------|
A--x-----------x-------------x------x-----------------------|
D--5-----------7-------------9------11----------------------|

this is the hit reset bit
e-----------------------------------------------------------|
B-----------------------------------------------------------|
G------------7-------------------------7-----6--------------|
D-7--0-0---7-------then------7--0-0----7----5---------------|
A-7--0-0---5-----------------7--0-0----5----5---------------|
D-7--0-0---0-----------------7--0-0----0----5---------------|

this is the "time and time again......sweat drenched hands" bit

e------------------------------------------------------------|
B------------------------------------------------------------|
G------------------------------------------------------------|
D-0-0-0--8------3-2-0-----------10---------------------------|
A-0-0-0--8------3-2-0--then-----10---------------------------|
D-0-0-0--8------3-2-0-----------10---------------------------|

last time played without the final 10 chord and goes into......

this is the 'you'd understand the way....to beleive in your heart....' bit
e---------------------------------------------------------------------|
B---------------------------------------------------------------------|
G------------------10---10---10---------------------------------------|
D--7-builds up -----8---10---x----------------------------------------|
A--8-then clean-----8---10---8----------------------------------------|
D--7----------------8---10---0----------------------------------------|


this is the safe part before the epic heavy bit

e-------0-----------------------0-----------------------------|
B---------x------------------------x--------------------------|
G-----------7------------------------7------------------------|
D--------------x------------------------x---------------------|
A-----------------8-----------------------8-------------------|
D-0-0--------------0----0-0--------------0--------------------|
[ Tab from: http://www.guitartabs.cc/tabs/b/biffy_clyro/convex_concave_tab_ver_3.html ]
e-------0----------------------------------------------------|
B----------x-------------------------------------------------|
G------------9-----------------------------------------------|
D---------------x-------------repeat-------------------------|
A------------------10----------------------------------------|
D-0-0-----------------0--------------------------------------|

e-------0----------------------------------------------------|
B----------x-------------------------------------------------|
G------------5-----------------------------------------------|
D---------------x-----------repeat---------------------------|
A------------------7-----------------------------------------|
D-0-0---------------0----------------------------------------|

e-------0----------------------------------------------------|
B----------x-------------------------------------------------|
G------------3--------------------3---2---5------------------|
D---------------x-----------------x---x---x------------------|
A------------------5--------------5---4---7------------------|
D-0-0---------------0-------------0---0---0------------------|

he plays the first two chords of that bit again, and finishes before the drop with...
e------------------------------------------------------------------|
B------------------------------------------------------------------|
G-5-5-5-5----------------------------------------------------------|
D-x-x-x-x------------------------------------7--7------------------|
A-7-7-7-7--slide down and repeat x4----------7--8---buildup--------|
D--------------------------------------------7--7------------------|

the best part of the song

e-------------------------------------------------------------------|
b-----------------------10-10-10-10-10-10-10-10-10/11-10-8-8-8-8-8--|
g---19---17---14, 15/14---------------------------------------------|
d-0----0----0------------7--7--7--7--7--7--7--7--7--7--7-7-7-7-7-7--|
a-0----0----0------------7--7--7--7--7--7--7--7--7--7--7-7-7-7-7-7--|
d-0----0----0------------7--7--7--7--7--7--7--7--7--7--7-7-7-7-7-7--|

repeated one more time

e--------------------------------------------------------------|
b--------------------------------------------------------------|
g----12--12--12-10----12--12--12-10---12-12-12-10--------------|
d--10--10--10---10--10--10--10---10--10-10-10--8---------------|
a--8---8---8----8---10--10--10---10--8--8--8---8---------------|
d--8---8---8----8---10--10--10---10--8--8--8---8---------------|

e--------------------10-10-10-10-10-10-10--|
b--10-11-10-8-10...------------------------|
g------------------------------------------|
d--7--7--7--7--7------7--7--7--7--7--7--7--|
a--7--7--7--7--7------7--7--7--7--7--7--7--|
d--7--7--7--7--7------7--7--7--7--7--7--7--|

after this do the bit with the 19 17 14 (epic drop bit) picking again and the
other bit but then...

e---------------------------------------------|
b---------------------------------------------|
g--10--<=penultimate chord--------------------|
d--10--------------------------9--end chord---|
a--8---------------------------7--------------|
d--8---------------------------7--------------|


my_name_is_jonas55@hotmail.com
Comments