Biffy Clyro - Christophers River Chords & Tabs

 

Christophers River Chords & Tabs

Biffy Clyro Chords & Tabs

Version: 1 Type: Tab 0 ratings
1 star 2 stars 3 stars 4 stars 5 stars
comments

Christophers River Tab

---------------------------------------------------------------------
		     Biffy Clyro= Christophers River
---------------------------------------------------------------------

this is a well sad song that i like,so dont dis or i wont b best pleased!haha.erm.
this is a bog standard biffy effects one.you know: no distortion to begin with, then 
big fat distortion!o by the way.its me again!(tombuttcrunch116@hotmail.com)

e|-------------------------------------------------------------------
b|-------------------------------------------------------------------
g|---0-0-0-0---------------------------------------------------------
d|---2-2-2-2---------------------------------------------------------
a|-------------------------------------------------------------------
E|-------------------------------------------------------------------

verse
e|-------------------------------------------------------------------
b|-----------0----------0----------0---------------------------------
g|--------------------------------------------0----------------------
d|---5-5-5-5----5-5-5-5----2-2-2-2----4-4-4-4------------------------
a|-------------------------------------------------------------------
E|-------------------------------------------------------------------

e|-------------------------------------------------------------------
b|-----------0----------0----------0---------------------------------
g|--------------------------------------------0----------------------
d|---5-5-5-5----5-5-5-5----2-2-2-2----4-4-4-4------------------------
a|-------------------------------------------------------------------
E|-------------------------------------------------------------------

you and me, always you held my head above the waves
paddling around pretending that it was not
too cold it was but not when you were there.

e|-------------------------------------------------------------------
b|-------------------------------------------------------------------
g|-----------5---------7---------7----------7------------------------
d|-----5---5-----7---7-------9-----9----7-----9----------------------
a|---3---3-----5---5-------7---7------5---5--------------------------
E|-------------------------------------------------------------------

Our shadows softly on the grass day would break wed have a laugh
our shirt tails in the wind seems like yesterday my freind
i know that we were scared hurt because you were not there
i know i want it all wish the sky would fall on me.


e|-------------------------------------------------------------------
b|-----------0----------0----------0---------------------------------
g|--------------------------------------------0----------------------
d|---5-5-5-5----5-5-5-5----2-2-2-2----4-4-4-4------------------------
a|-------------------------------------------------------------------
E|-------------------------------------------------------------------

you and me
[ Tab from: http://www.guitartabs.cc/tabs/b/biffy_clyro/christophers_river_tab.html ]
e|-------------------------------------------------------------------
b|-------------------------------------------------------------------
g|-------------------------4-4-4-4-2-2-2-2---------------------------
d|---5-5-5-5----5-5-5-5----5-5-5-5-4-4-4-4---------------------------
a|-------------------------------------------------------------------
E|-------------------------------------------------------------------

always, always

e|-------------------------------------------------------------------
b|-------------------------------------------------------------------
g|-----------5---------7---------7----------7------------------------
d|-----5---5-----7---7-------9-----9----7-----9----------------------
a|---3---3-----5---5-------7---7------5---5--------------------------
E|-------------------------------------------------------------------

Our shadows softly on the grass day would break wed have a laugh
our shirt tails in the wind seems like yesterday my freind
i know that we were scared hurt because you were not there
i know i want it all wish the sky would fall on me.

e|-------------------------------------------------------------------
b|-------------------------------------------------------------------
g|-------------------------------------------------------------------
d|------------5-----7------------------------------------------------
a|---5----2---3-----5------------------------------------------------
E|---3----0----------------------------------------------------------

im not through(repeat zillions of times)

e|-|---------------------------------------|-------------------------
b|-|---------------------------------------|-------------------------
g|-|-121212121212121212-16-16-16-16-14-12--|-------------------------
d|-|:-------------------------------------:|-------------------------
a|-|-101010101010101010-10-10-10-10-10-10--|-------------------------
E|-|---------------------------------------|-------------------------
(repeat 3 times then):

e|-------------------------------------------------------------------
b|-------------------------------------------------------------------
g|---161616161616161616-17171717-16-14-------------------------------
d|-------------------------------------------------------------------
a|---101010101010101010-10101010-10-10-------------------------------
E|-------------------------------------------------------------------

e|-|--------------------------------------|--------------------------
b|-|--------------------------------------|--------------------------
g|-|-12121212-14141414-16161616-14141414--|--------------------------
d|-|:------------------------------------:|--------------------------
a|-|-10101010-10101010-10101010-10101010--|--------------------------
E|-|--------------------------------------|--------------------------
(repeat 3times then):

e|-------------------------------------------------------------------
b|-------------------------------------------------------------------
g|---161616161616161616-17171717-1616-14-----------9-----------------
d|-------------------------------------------------9-----------------
a|---101010101010101010-10101010-1010-10-----------7-----------------
E|-------------------------------------------------------------------


=====================================================================
Comments