Biffy Clyro - Christophers River Chords & Tabs

 

Christophers River Chords & Tabs

Biffy Clyro Chords & Tabs

Version: 1 Type: Bass Tab 0 ratings
1 star 2 stars 3 stars 4 stars 5 stars
comments

Christophers River Bass Tab

   
Intro
G:-----------------------------
D:-2-2-2-2---------------------1x
A:-----------------------------
D:-----------------------------

Verse
G:---------------------------------
D:---------------------------------
A:---------------------------------
D:-5-5-5-5-5-5-5-2-2-2-2-4-4-4-4---

Chorus
G:---------------------------------
D:---------------------------------
A:---------------------------------
D:-3-3-3-3-5-5-5-5-7-7-7-7-9-9-9-9-

G:---------------------------------------------------
D:---------------------------------------------------
A:---------------------------------------------------1x
D:-3-3-3-3-5-5-5-5-7-7-7-7-9-9-9-9-10-9-10-9-0-------

Verse
G:---------------------------------
D:---------------------------------
A:---------------------------------
D:-5-5-5-5-5-5-5-2-2-2-2-4-4-4-4---

Chorus
G:---------------------------------          
D:--------------------------------- 1 x 
A:---------------------------------  
D:-3-3-3-3-5-5-5-5-7-7-7-7-9-9-9-9-  

G:---------------------------------------------------
D:---------------------------------------------------
A:---------------------------------------------------1x
D:-3-3-3-3-5-5-5-5-7-7-7-7-9-9-9-9-10-9-10-9-0-------

Middle
G:-----------------------------------------------------------------------
D:-----------------------------------------------------------------------
A:------------------------------------3-3-3-3-3-3-3-3-3------------------
D:3-3-3-3-3-3-3-3-3-0-0-0-0-0-0-0-0-0-------------------2-2-2-2-2-2-2-2-2
[ Tab from: http://www.guitartabs.cc/tabs/b/biffy_clyro/christophers_river_btab.html ]
Solo
G:------------------------------------------------------------------------------
D:------------------------------------------------------------------------------
A:------------------------------------------------------------------------------
D:3-3-3-3-3-3-3-3-3-3-5-5-5-5-5-5-5-5-5-5-7-7-7-7-7-7-7-7-7-7-9-9-9-9-9-9-9-9-9-

G:------------------------------------------------------------------------
D:------------------------------------------------------------------------
A:------------------------------------------------------------------------3 x
D:3-3-3-3-3-3-3-3-3-3-5-5-5-5-5-5-5-8-8-9-8-------------------------------

G:----------------------------------------------------------------------------------
D:----------------------------------------------------------------------------------
A:----------------------------------------------------------------------------------
D:9-9-9-9-9-9-9-9-9-9-7-7-7-7-7-7-7-7-7-7-5-5-5-5-5-5-5-5-5-5-3-3-3-3-3-3-3-3-3-3-2-
                                     
you and me, always you held my head above the waves
paddling around pretending that it was not too cold
it was but when you were there

our shadows softly on the grass
day would break we'd have our laughs
our shirt-tails in the wind
seems like yesterday my friend
i know that we were scared
hurt because you were not there
i know i want it all
wish the sky would fall on me

you and me, always
always

our shadows softly on the grass
day would break we'd have our laughs
our shirt-tails in the wind
seems like yesterday my friend
i know that we were scared
hurt because you were not there
i know i want it all
wish the sky would fall on me

i'm not through     i'm not through
i'm not through     i'm not through                      
i'm not through     i'm not through
i'm not through     i'm not through
i'm not through     i'm not through 
i'm not through     i'm not through
i'm not through     i'm not through
i'm not through     i'm not through
i'm not through     i'm not through

Enjoy
Comments