Biffy Clyro - Breatheher Chords & Tabs

 

Breatheher Chords & Tabs

Biffy Clyro Chords & Tabs

Version: 2 Type: Tab 0 ratings
1 star 2 stars 3 stars 4 stars 5 stars
comments

Breatheher Tab

-------------------------------------------------------------------------------
			     Biffy Clyro--Breatheher
-------------------------------------------------------------------------------

Tabbed by:winnerbago
Email:mapex_master@hotmail.com

Ive seen some god awful tabs for this...this ISNT the record version it is the
version they played on MTV2 on gonzo.
This version is in standard tuning unlike the original which is tuned half a step down i think.
Hvnt put how many times you play or the rytham....cant be arsed

e|-------x--x--x--x--x--x--x--x--x--x--x--x-------x---x---x-----x---x---x---x-|
B|-------0--0--0--0--0--0--0--0--0--0--0--0-------x---x---x-----x---x---x---x-|
G|--7----0--0--0--0--0--0--0--0--0--0--0--0---7---x---x---x----11---x---x---x-|
D|--0----0--0--0--4--4--4--0--0--0--4--4--4---0---12--12--12----9--12--12--12-|
A|--x----x--x--x--x--x--x--x--x--x--x--x--x---x---10--10--10----7--10--10--10-|
E|--7----3--3--3--3--3--3--3--3--3--3--3--3---7---8---8---8--------8---8---8--|
   I see her......                              Held up to the sky.......   
[ Tab from: http://www.guitartabs.cc/tabs/b/biffy_clyro/breatheher_tab_ver_2.html ]
e|--x----x--x--x--x--x--x--x--x--x--x--x--x-------x---x---x----x---x---x---x-|
B|--x----0--0--0--0--0--0--0--0--0--0--0--0-------x---x---x----x---x---x---x-|
G|--x----0--0--0--0--0--0--0--0--0--0--0--0---7---x---x---x----11--x---x---x-
D|--x----0--0--0--4--4--4--0--0--0--4--4--4---0---12--12--12---9---12--12--12|
A|--12---x--x--x--x--x--x--x--x--x--x--x--x---x---10--10--10---7---10--10--10|
E|--10---3--3--3--3--3--3--3--3--3--3--3--3---7---8---8---8--------8---8---8-|
   If youve seen......                          You'd have the chance..... 
e|--x---x--x--x--x-x--x--x--x--x-x--x--x--x--x-x--x--x--x-------x--x---------|
B|--x---0--0--0--3-3--1--1--1--3-3--0--0--0--3-3--1--1--1-------0--0---------|
G|--x---0--0--0--2-2--0--0--0--2-2--0--0--0--2-2--0--0--0---7---0--0---------| 
D|--x---2--2--2--0-0--0--0--0--0-0--2--2--2--0-0--0--0--0---0---0--0--etc----|
A|--12--2--2--2--0-0--3--3--3--0-0--2--2--2--0-0--3--3--3---x---x--x---------|
E|--10--0--0--0--x-x--x--x--x--x-x--0--0--0--x-x--x--x--x---7---3--3---------|
        I think im fallin......

The next section goes like.....
                   .After this chord repeat again   
e|----x--x--x--x--x--x--x--x--x--x--x--x--x----------------x--x----x-x-x-x---|
B|----3--3--3--3--3--3--3--3--3--3--0--0--0---8--8--7--8---0--0----0-0-0-0---|
G|----0--0--0--0--0--0--0--0--0--0--x--x--x---0--0--0--0---x--x----2-2-2-2---|
D|----0--0--2--0--0--0--0--2--0--0--2--2--2---x--x--x--x---2--2----x-x-x-x---|
A|----x--x--0--2--3--x--x--0--2--3--2--2--2---7--7--7--7---2--2----2-2-2-2---|
E|----3--3--x--x--x--3--3--x--x--x--0--0--0----------------0--0----x-x-x-x---|
   These are the days.......
  

e|---x--x--x---------x--x--x--x----------------------------------------------|
B|---1--1--1---------0--0--0--0----------------------------------------------
G|---0--0--0-----7---0--0--0--0----------------------------------------------|
D|---0--0--0-----0---0--0--4--4----------------------------------------------|
A|---3--3--3-----x---x--x--x--x----------------------------------------------|
E|---x--x--x-----7---3--3--3--3--------7-10-7-5-3-2--------------------------|

He doesnt actually finish the song just ends on a stupid riff
Email me for questions, corrections etc
===============================================================================
Comments