Biffy Clyro - 57 Chords & Tabs

 

57 Chords & Tabs

Biffy Clyro Chords & Tabs

Version: 2 Type: Tab 0 ratings
1 star 2 stars 3 stars 4 stars 5 stars
comments

57 Tab

Biffy Clyro - 57


Intro

e|------------------------------*------------------------
b|------------------------------*------------------------
g|---------------------Dist-----*---Repeat this below---
d|---3-3-3-3-x-33-3-3-x-0-5-5-5-*---4444-4444-x-0-5-5-5--
a|---4-4-4-4-x-44-4-4-x-0-5-5-5-*---4444-4444-x-0-5-5-5--
e|---2-2-2-2-x-22-2-2-x---3-3-3-*---2222-2222-x---3-3-3--

Verse 
e----------
b----------
g------7---Repeat a few times
d---4--7---
a---4--5---
e---2------

then

e------------------------------
b------------------------------
g-11-9-7-6-6-6-6-7-9-11-11-11--
d--x-x-x-x-x-x-x-x-x-x--x--x---Repeat
a--9-7-5-4-4-4-4-5-7-9--9--11--
e------------------------------


Bridge (i dont believe theres a love anymore....)

e------------------------------------------------------------
b------------------------------------------------------------
g------------------------------------------7-7-7--9-9-11-11--
d-5-5-5-7-7-7-9-9-9-9-9-9-9-9--5-5-5-7-7-7-7-7-7--x-x-x--x---
a-5-5-5-7-7-7-9-9-9-9-9-9-9-9--5-5-5-7-7-7-5-5-5--7-7-9--9---
e-3-3-3-5-5-5-7-7-7-7-7-7-7-7--3-3-3-5-5-5-------------------
[ Tab from: http://www.guitartabs.cc/tabs/b/biffy_clyro/57_tab_ver_2.html ]
e--------------------------------------
b--------------------------------------
g--------------------------------------
d-5-5-5-7-7-7-9-9-9-4-4-4-5-5-5-7-7-7--
a-5-5-5-7-7-7-9-9-9-4-4-4-5-5-5-7-7-7--
e-3-3-3-5-5-5-7-7-7-2-2-2-3-3-3-5-5-5--


Chorus (and i'l try not to feel....)

e----------------------------------------------------------
b----------------------------------------------------------
g-7-7-7-7-7-7----------------------------------------------
d-7-7-7-7-7-7-7-7-7-7-7-7-5-5-5-5-5-5-5-5-5-5-5-5-5-5-5-5--
a-5-5-5-5-5-5-7-7-7-7-7-7-5-5-5-5-5-5-5-5-5-5-5-5-5-5-5-5--
e-------------5-5-5-5-5-5-3-3-3-3-3-3-3-3-3-3-3-3-3-3-3-3--



Quiet Part (ooh...)

e-----5-----5-------5------
b-2-3---2-3---3-2-3---3-2--
g--------------------------
d--------------------------
a--------------------------
e--------------------------


Outro

e|--------------------------
b|--------------------------
g|-11-11-11-11-11-11-9-7-7--
d|-x--x--x--x--x--x--x-x-x--
a|-9--9--9--9--9--9--7-5-5--
e|--------------------------

Last chord

e|-------
b|-------
g|-------
d|---4---
a|---4---
e|---2---

If you want the way they actually play it then i'l post it but i prefer this way. 

please rate because i've only ever done one tab before and i got 4 stars
(less than jake - surrender)
Comments