Biffy Clyro - 57 Chords & Tabs

 

57 Chords & Tabs

Biffy Clyro Chords & Tabs

Version: 1 Type: Bass Tab 0 ratings
1 star 2 stars 3 stars 4 stars 5 stars
comments

57 Bass Tab

intro

G:-----------------------------------------------------
D:-----------------------------------------------------
A:----------------------------------------------------- x4
D:-4-4-4-4-4-4-4-4-0-5-5-5-5-5-5-5-5-------------------

G:-----------------------------------------------------
D:-----------------------------------------------------
A:----------------------------------------------------- x3
D:-2---------6-----------2----------6------------------

Verse
G:-----------------------------------------------------
D:-----------------------------------------------------4x (think)
A:----------------------------------------------------- 
D:-9-9-9-7-8-5-6-6-6-6-5-7-9-9-9-9---------------------

bridge
G:-----------------------------------------------------
D:-----------------------------------------------------
A:-------------------------7-7-7-7-9-9-9-9-11-11-11---- 
D:-5-5-7-7-9-9-9-9-5-5-7-7-----------------------------
                         Then                              1x
G:-----------------------------------------------------
D:-----------------------------------------------------
A:----------------------------Break-------------------- 
D:5-5-7-7-9-9-4-4-5-5-7-7------------------------------

chorus 
G:-----------------------------------------------------
D:-----------------------------------------------------2x
A:-5-5-5-5-5------------------------------------------- 
D:-----------7-7-7-7-7-7-5-5-5-5-5-5-5-5-5-------------

Verse
G:-----------------------------------------------------
D:-----------------------------------------------------x6 (think)
A:----------------------------------------------------- 
D:-9-9-9-7-8-5-6-6-6-6-5-7-9-9-9-9---------------------

[ Tab from: http://www.guitartabs.cc/tabs/b/biffy_clyro/57_btab.html ]
bridge
G:-----------------------------------------------------
D:-----------------------------------------------------
A:-------------------------7-7-7-7-9-9-9-9-11-11-11---- 
D:-5-5-7-7-9-9-9-9-5-5-7-7-----------------------------
                         Then                              1x
G:-----------------------------------------------------
D:-----------------------------------------------------
A:----------------------------Break-------------------- 
D:5-5-7-7-9-9-4-4-5-5-7-7------------------------------

chorus 
G:-----------------------------------------------------
D:-----------------------------------------------------x ALOT
A:-5-5-5-5-5------------------------------------------- 
D:-----------7-7-7-7-7-7-5-5-5-5-5-5-5-5-5-------------

erse
G:-----------------------------------------------------
D:-----------------------------------------------------x4(think)
A:----------------------------------------------------- 
D:-9-9-9-7-8-5-6-6-6-6-5-7-9-9-9-9---------------------

the sun shone in, the gleam in your eye
your beautiful face, your beautiful face
i held her tight, close to my heart
i didn't know it would break
i didn't know it would break

i don't believe there's love anymore
it's all in sight
we always said it's forever
in this beautiful life

and i'll try not to feel this music's for you
and over, and, and over, and, and over, and
and i'll try not to feel this music's for you
and over, and, and over, and, and over, and, and over,and

i held her tight, close to my heart
i didn't know it would break
i didn't know it would break

i don't believe there's love anymore
it's all in sight
we always said it's forever
in this beautiful life

and i'll try not to feel this music's for you
and over, and, and over, and, and over, and
and i'll try not to feel this music's for you
and over, and, and over, and, and over, and
and over, and, and over, and, and over, and, and over, and
and over, and, and over, and, and over, and, and over, and
and over, and, and over, and, and over, and, and over, and
and over, and, and over, and, and over, and, and over, and

it's alright
it's alright
it's alright
it's alright
Comments