Biffy Clyro - 27 Chords & Tabs

 

27 Chords & Tabs

Biffy Clyro Chords & Tabs

Version: 1 Type: Tab 0 ratings
1 star 2 stars 3 stars 4 stars 5 stars
comments

27 Tab

---------------------------------------------------------------------
		     Biffy Clyro= 27
---------------------------------------------------------------------
hey there.its me again!(tombuttcrunch116@hotmail.com)one of the only ppl to tab biffy 
so far!!!IM WELL PROUD!!!!neway.this is the second song on the album: BLackened Sky.CYAS 
SOON!im tabing justboy next so hang on that person that emailed me and asked for it.cyas.

verse
e|-------------------------------------------------------------------
b|-------------------------------------------------------------------
g|---9-9-9-7-7-7-7-7-7-11-11-11-9-9-9-9-9-9-7------------------------
d|-------------------------------------------------------------------
a|---7-7-7-5-5-5-5-5-5--9--9--9-7-7-7-7-7-7-5------------------------
E|-------------------------------------------------------------------

bridge
e|-------------------------------------------------------------------
b|-------------------------------------------------------------------
g|---4-4-4-4-4-4-4-4-6-6-6-6-6-6-6-6-6-7-7-7-7-7-7-7-7-7-------------
d|-------------------------------------------------------------------
a|---2-2-2-2-2-2-2-2-4-4-4-4-4-4-4-4-4-5-5-5-5-5-5-5-5-5-------------
E|-------------------------------------------------------------------
bass: 2              4                 5

e|-------------------------------------------------------------------
b|-------------------------------------------------------------------
g|---4-4-4-4-4-4-4-4-6-6-6-6-6-6-6-6-6-7-7-7-7-7-7-7-7-7-------------
d|-------------------------------------------------------------------
a|---2-2-2-2-2-2-2-2-4-4-4-4-4-4-4-4-4-5-5-5-5-5-5-5-5-5-------------
E|-------------------------------------------------------------------
bass: 2              4                 0

2nd Bridge
e|-------------------------------------------------------------------
b|-------------------------------------------------------------------
g|-------------------------------------------------------------------
d|---44444444-66666666-77777777-77777777-----------------------------
a|---22222222-44444444-55555555-55555555-----------------------------
E|-------------------------------------------------------------------
[ Tab from: http://www.guitartabs.cc/tabs/b/biffy_clyro/27_tab.html ]
e|-------------------------------------------------------------------
b|-------------------------------------------------------------------
g|-------------------------------------------------------------------
d|---44444444-66666666-77777777-77777777-----------------------------
a|---22222222-44444444-55555555-55555555-----------------------------
E|-------------------------------------------------------------------

e|-------------------------------------------------------------------
b|-------------------------------------------------------------------
g|---9-9-9-9-9-7-7-7-7-7-11-11-11-9-9-9-9-9-6------------------------
d|-------------------------------------------------------------------
a|---7-7-7-7-7-5-5-5-5-5--9--9--9-7-7-7-7-7-4------------------------
E|-------------------------------------------------------------------

verse
e|-------------------------------------------------------------------
b|-------------------------------------------------------------------
g|---9-9-9-7-7-7-7-7-7-11-11-11-9-9-9-9-9-9-7------------------------
d|-------------------------------------------------------------------
a|---7-7-7-5-5-5-5-5-5--9--9--9-7-7-7-7-7-7-5------------------------
E|-------------------------------------------------------------------

(its alright now)
e|-------------------------------------------------------------------
b|-------------------------------------------------------------------
g|--11-11-11-11-11-11-11-11-11-9-9-9-9-9-7-7-7-----------------------
d|-------------------------------------------------------------------
a|---9--9--9--9--9--9--9--9--9-7-7-7-7-7-5-5-5-----------------------
E|-------------------------------------------------------------------
(twice)

e|-------------------------------------------------------------------
b|-------------------------------------------------------------------
g|--14-14-14-14-14-14-14-14-14-9-9-9-9-9-7-7-7-----------------------
d|-------------------------------------------------------------------
a|---9--9--9--9--9--9--9--9--9-7-7-7-7-7-5-5-5-----------------------
E|-------------------------------------------------------------------
(twice)

e|-------------------------------------------------------------------
b|-------------------------------------------------------------------
g|---7---------------------------------------------------------------
d|---7---------------------------------------------------------------
a|---5---------------------------------------------------------------
E|-------------------------------------------------------------------

e|-------------------------------------------------------------------
b|-------------------------------------------------------------------
g|-------------------------------------------------------------------
d|---/12-11-12-11-12-11--7-11-12-14-12--11-12-11-12-14-16-12~~~~~~~--
a|-------------------------------------------------------------------
E|-------------------------------------------------------------------
Comments