Bif Naked - Moment Of Weakness Chords & Tabs

 

Moment Of Weakness Chords & Tabs

Bif Naked Chords & Tabs

Version: 2 Type: Bass Tab 0 ratings
1 star 2 stars 3 stars 4 stars 5 stars
comments

Moment Of Weakness Bass Tab

   Moment of Weakness by Bif Naked

   Tabbed by Aaron Putnam  youthrevolt@hotmail.com



  riff   1
G |-------------------------------------------------------------|
D |-------------------------------------------------------------|
A |---8-8-8-8----7-7-7-7----5-5-5-5----3-3-3-3-----|
E |-------------------------------------------------------------|


G |-------------------------------------------------------------|
D |-------------------------------------------------------------|
A |---1-1-1-1--------------------------------3-3-3-3------|
E |-----------------5-5-5-5----3-3-3-3--------------------|



     riff  2
G |-------------------------------------------------------------|
D |-------------------------------------------------------------|
A |---8-8-8----7-7-7----5-5-5----3-3-3----1-1-1-----|
E |-------------------------------------------------------------|
[ Tab from: http://www.guitartabs.cc/tabs/b/bif_naked/moment_of_weakness_btab_ver_2.html ]
G |-------------------------------------------------------------|
D |-------------------------------------------------------------|
A |---------------------------3-3-3---------------------------|
E |----5-5-5----3-3-3---------------------------------------|


G |---------------------------------------------------| 
A |---------------------------------------------------|
D |---8-8-8----7-7-7----5-5-5----3-3-3----1-1-1--|
E |---------------------------------------------------|


G |---------------------------------------------------| 
A |---------------------------------------------------|
D |-----------------2---3----------------------------|
E |---5-5-5----3-------------------------------------|


    riff 3
G |---------------------------------------------------| 
A |---------------------------------------------------|
D |---7-7-7-7----6-6-6-6----4-4-4-4---2-2-2-2---|
E |---------------------------------------------------|



G |---------------------------------------------------| 
A |---------------------------------------------------|
D |---0-0-0-0----------------------------2-2-2-2---|
E |---------------4-4-4-4----2-2-2-2---------------|


  How it's played:

  Riff 1  X4
  
  Riff 2  X1

  Riff 1  X2

  Riff 2  X1

  Riff 3 till end


if you have any corrections for this tab email me or something.

Comments