Bif Naked - I Love Myself Today Chords & Tabs

 

I Love Myself Today Chords & Tabs

Bif Naked Chords & Tabs

Version: 3 Type: Tab 0 ratings
1 star 2 stars 3 stars 4 stars 5 stars
comments

I Love Myself Today Tab

Intro/verse:
e------------------------------------
B------------------------------------
G--------------------------------7--- 
D-4-4-4-4--4-4-7----4-4-4-4--4-4-7---
A-4-4-4-4--4-4-7----4-4-4-4--4-4-5---
E-2-2-2-2--0-2-5----2-2-2-2--0-2-----
[ Tab from: http://www.guitartabs.cc/tabs/b/bif_naked/i_love_myself_today_tab_ver_3.html ]
Prechorus:
e----------------------------------------------
B----------------------------------------------
G----------------------------------------------
D-6-6--6-6------6-6--6-6-----6-6--6-6--6-5-4-3-
A-4-4--4-4-5----4-4--4-4-5---4-4--4-4--4-3-2-1-
E----------3-------------3---------------------


Chorus:
e--------------------------------------
B--------------------------------------
G----------------------------4-4-------
D-4-4--7--2-2-4-4----4-4--7--2-2-4-4---
A-4-4--7--2-2-2-2----4-4--7------2-2---
E-2-2--5--0-0--------2-2--5------------

e------------------------------------------
B------------------------------------------
G-4-4-4-4-4--------------------------------
D-2-2-2-2-2--4-4-4-4-7-7-7-7-7-4-4-4-4-4-4-
A------------2-2-2-2-5-5-5-5-5-2-2-2-2-2-2-
E------------------------------------------

By:  Adam Redden
Comments