Bif Naked - I Love Myself Today Chords & Tabs

 

I Love Myself Today Chords & Tabs

Bif Naked Chords & Tabs

Version: 2 Type: Tab 1 rating
1 star 2 stars 3 stars 4 stars 5 stars
comments

I Love Myself Today Tab

From - David Rojas


I Love Myself Today
Bif Naked - Purge


Into:
e-----------------------------------------------
B-----------------------------------------------
G----------------------------7-------------------
D--4-4-4-4--4-7--4-4-4-4--4--7------------------Play this 3x
A--4-4-4-4--4-7--4-4-4-4--4--5------------------
E--2-2-0-2--2-5--2-2-0-2--2---------------------
[ Tab from: http://www.guitartabs.cc/tabs/b/bif_naked/i_love_myself_today_tab_ver_2.html ]
Verse:
e-----------------------------------------------
B-----------------------------------------------
G----------4--4---------------------------------
D--4--7--2-2--4--4--7--2--4---------------------Play this 2x
A--4--7--2----2--4--7--2--2---------------------
E--2--5--0-------2--5--0------------------------


just listen to the song and u should get it. e-mail me the corrections at kahunaka@hotmai.com
thanks.



Comments