Bif Naked - I Love Myself Today Chords & Tabs

 

I Love Myself Today Chords & Tabs

Bif Naked Chords & Tabs

Version: 1 Type: Tab 0 ratings
1 star 2 stars 3 stars 4 stars 5 stars
comments

I Love Myself Today Tab

#----------------------------------PLEASE NOTE--------------------------------#
#This file is the author's own work and represents their interpretation of the#
#song. You may only use this file for private study, scholarship, or research.#
#-----------------------------------------------------------------------------#
#-- Tabbed by Jimmy Cafarella                                               --#
#-----------------------------------------------------------------------------#

Author/Artist: Bif Naked
Title: I Love Myself Today


  intro (with distortion)

-|-------------------------------|-----|--------------5------------------|----
-|-------------------------------|-----|--------------5------------------|----
-|------------------------------2|-----|---------------------------------|----
-|--------------2---------------0|--X3-|---------------------------------|----
-|-4-4-x-4--x-4-0--4-4-x-4--x-4--|-----|-----------------4-4-x-4--2b3r2p0|----
-|-2-2-x-2--x-2----2-2-x-2--x-2--|-----|-2-2-0-2--x-2----2-2-x-2---------|----


   verse
                                                                              

-|-------------------------------|-----|--------------------------------|-----
-|-------------------------------|-----|--------------------------------|-----
-|-------------------------------|-----|--------------------------------|-----
-|------------------------------7|--X3-|--------------------------------|-----
-|--------------7---------------5|-----|--------------7-----------2b3rp0|-----
-|-2-2-x-2--x-2-5--2-2-x-2--x-2--|-----|-2-2-x-2--x-2-5--2-2-x-2--------|-----
                                                                              

-|---------------------------------------------------------------|------------
-|---------------------------------------------------------------|------------
-|---------------------------------------------------------------|------------
-|------------------------------7-------------------------------7|------------
-|--------------7---------------5---------------7---------------5|------------
-|-2-2-x-2--x-2-5--2-2-x-2--x-2----2-2-x-2--x-2-5--2-2-x-2--x-2--|------------


   bridge
                                                                              
[ Tab from: http://www.guitartabs.cc/tabs/b/bif_naked/i_love_myself_today_tab.html ]
-|----------------------------------------------------|-----------------------
-|----------------------------------------------------|-----------------------
-|----------------------------------------------------|-----------------------
-|6-6-x-6----6-6-x-6------6-6--x-6----6-6-5-5-4-4--2-2|-----------------------
-|4-4-x-4--5-4-4-x-4--5---4-4--x-4--x-4-4-3-3-2-2--0-0|-----------------------
-|---------3----------3-------------------------------|-----------------------



   chorus
                                                                              

-|--------------------------|-----|-------------------------------------------
-|--------------------------|-----|-------------------------------------------
-|--------------------------|-----|-------------------------------------------
-|-4-------7-------9-------9|--X3-|-------------------------------------------
-|-4-------7-------7-------9|-----|-------------------------------------------
-|-2-------5-------7-------7|-----|-------------------------------------------



  
                                                                             
-|--------------------------------------------------|-------------------------
-|--------------------------------------------------|-------------------------
-|--------------------------------------------------|-------------------------
-|-9-9-9-9-9-9-9-----------7-7-7-7-7-7--------------|-------------------------
-|-7-7-7-7-7-7-7-7/9-9-7/9-5-5-5-5-5-5-7/9-9-7/9-7-9|-------------------------
-|---------------5/7-7-5/7-------------5/7-7-5/7-5-7|-------------------------


  THEN DO VERSE AGAIN


  THEN BRIDGE AGAIN


  THEN CHORUS AGAIN


  rhythm behind solo (still working on solo-just fake something)
                                                                              

-|--------------------------|-----|------------------------|------------------
-|--------------------------|-----|------------------------|------------------
-|--------------------------|-----|------------------------|------------------
-|-4-------7-------9-------9|--X2-|-9-9-9-9-9-9-9----------|------------------
-|-4-------7-------7-------9|-----|-7-7-7-7-7-7-7-7/9-9-7/9|------------------
-|-2-------5-------7-------7|-----|---------------5/7-7-5/7|------------------


  THEN DO BRIDGE AGAIN


  THEN DO CHORUS AGAIN TWICE(listen to song-they take a few chords out)


  THEN DO INTRO


  THEN RIGHT NEAR THE END IT DOES SOMETHING LIKE THIS:
                                                                              

-|--------------------------------|
-|--------------------------------|
-|--------------------------------|
-|-7-6---7-6---7-6---7-6---7-6----|
-|-5-4-x-5-4-x-5-4-x-5-4-x-5-4-x-4|
-|-------------------------------2|
                                                                              

 email me with questions , complaints, corrections, suggestions, 
 credit card numbers, etc. jcafarella@hotmail.com
                                                                 
                                                                              

Comments