Bif Naked - I Love Myself Today Chords & Tabs

 

I Love Myself Today Chords & Tabs

Bif Naked Chords & Tabs

Version: 1 Type: Bass Tab 0 ratings
1 star 2 stars 3 stars 4 stars 5 stars
comments

I Love Myself Today Bass Tab

   
this is my first tab so go easy on me..hehe !*! =p

Intro (10x)  up & down stroke on the 2*!
G----------------------------------|
D----------------------------------|
A-----------------------------5----|
E-2-2-0-2-0-2*-5---2-2-0-2-0-2*----|

Verse 1
(2x)              (1X)
G---------------|------------------------------|
D-----2---2-----|------2-----2-----------------|
A-4-4---4-------|--4-4---4-4---4-4-3-3-2-2-0-0-|
E-----------3---|------------------------------|

Chorus (3x Hold notes)
G---------|
D---------|
A---0---2-|
E-2---0---|
[ Tab from: http://www.guitartabs.cc/tabs/b/bif_naked/i_love_myself_today_btab.html ]
G-----------------------------------------------------|
D-2-2-2-2-2-2-2---------------------------------------|
A---------------0-2-2-0-2-0-5-5-5-5-5-5-4-0-0-2-0-2-0-|
E-----------------------------------------------------|
BACK TO INTRO (5x) Then Verse 1 & chorus

@2:09min       VERSE 2 (u only play this once)
G---------------------------------------------------|
D---------------------------------------------------|
A-9-9-9-9-9-9-9-9--7-9-9-9-9-9-9-9--7-9-9-9-9-9-9-9-|
E---------------------------------------------------|

G-------------------9----9-11-|
D----------7-9-9-11---11------|
A-7-9-9-9---------------------|
E-----------------------------|

Go To Verse 1 & Go through Chorus (2x)

Start to do Intro (3x) & at the very end add this DO FAST!
G-------------------------|
D-------------------------|
A-5-4-0-5-4-0-5-4-0-5-4-0-|
E-------------------------|

& ur done =)  Any comments or questions e-mail me! Please point out for me if ya think sumthins 
wrong.. ..im_such_a_kinky_babe@hotmail.com   & THANKS!*!
Comments