Bif Naked - Back In The Day Chords & Tabs

 

Back In The Day Chords & Tabs

Bif Naked Chords & Tabs

Version: 1 Type: Bass Tab 0 ratings
1 star 2 stars 3 stars 4 stars 5 stars
comments

Back In The Day Bass Tab

* = light pop
/ \ = slide

Intro:
G|------------|
D|------------|
A|----5-3-2-0-|
E|-3----------|

Verse:
G|----------------------|
D|----------------------|
A|--------------5-3/2-0-|
E|-88-888-888-8---------|

G|----------------------|
D|----------------------|
A|--------------5-3/2-0-|
E|-33-333-333-3---------|

Pre-Chorus
G|-------------------------------------------------------------|
D|-------------------------------------------------------------|
A|-7-7-7-7-7-7----9-9-9-9-9-9---7-7-7-7-7-7----9-9-9-9-9-9-9-9-|
E|-------------7-9-----------9-7----------- 7-9----------------|
[ Tab from: http://www.guitartabs.cc/tabs/b/bif_naked/back_in_the_day_btab.html ]
Chorus:
G|----------------------------------------------------------------|
D|----------------------------------------------------------------|
A|----------------------------------------------------------------|
E|-7*-7*-7*-7/5*5*5*5*/3-3-0/3-3-0/3-3-3-3-|

Post Chorus: (Best was yet to come part)
G|------------------------------|
D|------------------------------|
A|3*3*3*3-----------------------|
E|--------3-3-3-3-3-0-0-0-0-0-0-|

Interlude:
G|-----------------------------|
D|-----------------------------|
A|---11-9---9----11-9----------|
E|-9------9---9---------9\7~~--|

G|-------------------------------------|
D|-------------------------------------|
A|----11-9----9------------------------|
E|-9--------9----9-7-7-7-7-7-7-(BREAK)-|
Comments