Bicycle Thief - Cereal Song Chords & Tabs

 

Cereal Song Chords & Tabs

Bicycle Thief Chords & Tabs

Version: 2 Type: Tab 0 ratings
1 star 2 stars 3 stars 4 stars 5 stars
comments

Cereal Song Tab

   
-------------------------------------------------------------------------------
			     Cereal Song - The Bicycle Thief
-------------------------------------------------------------------------------

By:tabbed by Christopher Jasso
This is a very, very easy song to play
During the intro and verses there is an acoustic guitar strumming E then Asus
[ Tab from: http://www.guitartabs.cc/tabs/b/bicycle_thief/cereal_song_tab_ver_2.html ]
Intro
    E                                           Asus          (repeat about 5 times)
e|-------------------------------------------------------------------------------|
B|-------------------------------------------------------------------------------|
G|-------------------------------------------------------------------------------|
D|----------------------------------------------9-9-9--11-11-11--9-9-9--11-11-11-|
A|--9-9-9----11-11-11--9-9-9--11-11-11----------0-0-0--0--0--0---0-0-0--0- 0- 0--|
E|--0-0-0----0--0--0---0-0-0--0--0--0--------------------------------------------|

    B(3X)          A(3x)
e|--7--------------5--------| Then when the rest of the band comes in crank some
B|--7--------------5--------| distortion and continue w/ the intro, now for the solo
G|--8--------------6--------| I just make it up as I go, you can't tab out John Frusciante
D|--9--------------7--------| guitar solos, its not very polite.  Just listen to the song
A|--------------------------| and you will get the rythm, changes, and when to start and stop
E|--------------------------|
    E            Asus
e|--0-------------0-------| Any questions or complaints, or if you just wanna bitch
B|--0-------------0-------| email me, cocheese999@yahoo.com
G|--1-------------2-------|
D|--2-------------2-------|
A|--2-------------0-------|                                check ya later     ~Gonzo~
E|--0-------------x-------|
Comments