Bic Runga - Drive Chords & Tabs

 

Drive Chords & Tabs

Bic Runga Chords & Tabs

Version: 1 Type: Tab 0 ratings
1 star 2 stars 3 stars 4 stars 5 stars
comments

Drive Tab

Artist: Bic Runga   Song: Drive   Album: Drive  (released '97)

From New Zealand's stand out female singer/songwriter talent this incredible song was
written a few minutes before Bic Runga's first
solo gig in Auckland, NZ, as she didn't have enough songs to make
up a 40 minute set.

Verse One:

e ------------3---------------1---------------1---------------0----------|
B ----------3----3----------1----1----------3----3----------1----1-------|
G --------2--------2------0--------0------3--------3------0--------0-----|
D -----0-------------0---------------2---------------3-------------------| x4
A ----------------------3---------------1---------------3----------------|
E -----------------------------------------------------------------------|
       I    know  it's  late  now  i  know i  ought to  go
       Ride  in  your  car  now  but please don't drop me home
       My  head's   so  heavy   could   this be all a dream
       Promise    me   maybe's   and  say things you don't mean

Chorus:

e -----------1---------------0---------------1--------------1------------|
B ---------3----3----------1----1----------3----3--------3----3----------|
G -------3--------3------0--------0------2--------2----2--------2--------|
D ------------------3---------------2--0-------------0-------------------|
A -----1---------------3------------------------------------------0------|
E -----------------------------------------------------------------------|
       Rain fall from concrete coloured skies

e -----------1---------------0---------------1---------------0-----------|
B ---------3----3----------1----1----------3----3----------1----1--------|
G -------3--------3------0--------0------2--------2------0--------0------|
D ------------------3---------------2--0------------0---------------2----|
A -----1---------------3-------------------------------3-----------------|
E -----------------------------------------------------------------------|
       No boy don't speak now you just drive...        drive...

e -----------1---------------0---------------1---------------0-----------|
B ---------3----3----------1----1----------3----3----------1---1---------|
G -------3--------3------0--------0------2--------2------0-------0-------|
D ------------------3---------------2--0------------0--------------2-----|
A -----1---------------3-------------------------------3-----------------|
E -----------------------------------------------------------------------|
    drive take me through, make me feel alive...       alive...

e -----------1---------------0--------------------------------------------|
B ---------3----3----------1----1-----------------------------------------|
G -------3--------3------0--------0---------------------------------------|
D ------------------3-----------------------------------------------------|
A -----1---------------3--------------------------------------------------|
E ------------------------------------------------------------------------|
      when i ride with you.

Verse Two:
[ Tab from: http://www.guitartabs.cc/tabs/b/bic_runga/drive_tab.html ]
e ------------3---------------1---------------1---------------0----------|
B ----------3----3----------1----1----------3----3----------1----1-------|
G --------2--------2------0--------0------3--------3------0--------0-----|
D -----0-------------0---------------2---------------3-------------------| x4
A ----------------------3---------------1---------------3----------------|
E -----------------------------------------------------------------------|
      Keep   my  heart  turning   on   axles   around   you
      Keep   our love   burning   just like  it used to do
      Now   just for   us  they  could play our favourite tune
      Let's    not   discuss all these things  we can't undo

Chorus:

e -----------1---------------0---------------1--------------5--1---------|
B ---------3----3----------1----1----------3----3--------3---------------|
G -------3--------3------0--------0------2--------2----2-----------------|
D ------------------3---------------2--0-------------0-------------------|
A -----1---------------3-----------------------------------------0-------|
E -----------------------------------------------------------------------|
    Let rain fall from concrete coloured skies

e -----------1---------------0---------------1---------------0-----------|
B ---------3----3----------1----1----------3----3----------1----1--------|
G -------3--------3------0--------0------2--------2------0--------0------|
D ------------------3---------------2--0------------0---------------2----|
A -----1---------------3-------------------------------3-----------------|
E -----------------------------------------------------------------------|
       No boy don't speak now you just drive...        drive...

e -----------1---------------0---------------1---------------0-----------|
B ---------3----3----------1----1----------3----3----------1---1---------|
G -------3--------3------0--------0------2--------2------0-------0-------|
D ------------------3---------------2--0------------0--------------2-----|
A -----1---------------3-------------------------------3-----------------|
E -----------------------------------------------------------------------|
    drive take me through, make me feel alive...       alive...

e -----------1---------------0--------------------------------------------|
B ---------3----3----------1----1-----------------------------------------|
G -------3--------3------0--------0---------------------------------------|
D ------------------3-----------------------------------------------------|
A -----1---------------3--------------------------------------------------|
E ------------------------------------------------------------------------|
      when i ride with you.

e -----------1---------------0---------------1--------------5--1---------|
B ---------3----3----------1----1----------3----3--------3---------------|
G -------3--------3------0--------0------2--------2----2-----------------|
D ------------------3---------------2--0-------------0-------------------|
A -----1---------------3-----------------------------------------0-------|
E -----------------------------------------------------------------------|
       Rain fall from concrete coloured skies

e -----------1---------------0---------------1---------------------------|
B ---------3----3----------1----1----------3-----------------------------|
G -------3--------3------0--------0------2-------------------------------|
D ------------------3---------------2--0---------------------------------|
A -----1---------------3-------------------------------------------------|
E -----------------------------------------------------------------------|
       No boy don't speak now you just drive.

Music and lyrics written by Bic Runga.

Interpretated by ear, all my own work, (attempted as far as possible to
synchronise lyrics with the actual music).
Lyrics from the official Bic Runga website; http://www.bicrunga.com/
Good Luck
Campbell
Comments