Bibb Eric - Dance Me To The End Of Love Chords & Tabs

 

Dance Me To The End Of Love Chords & Tabs

Bibb Eric Chords & Tabs

Version: 1 Type: Tab 0 ratings
1 star 2 stars 3 stars 4 stars 5 stars
comments

Dance Me To The End Of Love Tab

   
My wife and I spent a wonderful evening at an Eric Bibb concert recently and this particular song actually brought tears to our eyes. We loved it so much that I want to share it with you, particularly as I have downloaded and enjoyed playing so many of my favourite songs.
Thank you Guitar Tab Universe - and thank you Eric Bibb for this wonderful song and for that truly memorable evening at Warwick Arts Centre.



            
DANCE ME TO THE END OF LOVE – ERIC BIBB

                C                            F                                                C                      F

E----------0-1h-0p--------------1--------------|-------------------0-1h-0p-------------1----------
B-------1-------------1---------1---1-----------|----------------1------------1--------1---1--------
G----0------------------0----2--------2---------|-------------0-----------------0----2-------2------
D------------------------------------------------|----------------------------------------------------
A--3---------------------------------------------|---------3----------------------------------------
E---------------------------1---------------------|----------------------------------1----------------

                C                  F                                                   C                F

E----------0--------------1---------------------|----------------0------------1---------------------
B--------1---1---------1---1-------------------|-------------1----1-------1---1-------------------
G------0-------0----2--------2-----------------|----------0-------------2--------2----------------
D------------------------------------------------|-------------------------------------------------------------
A----3-------------------------------------------|-------3------------------------------------------------
E------------------1-----------------------------|----------------------1--------------------------------
          Now that we’re here,                                    let’s take our time,

                C                  F                                                               C

E----------0--------------1-------------------|--------------1--------------0-1h-0p-----------1----------
B--------1---1---------1---1-----------------|-----------1--------------1------------1------1---1--------
G------0-------0----2--------2---------------|--------2---------------0-------------------0-------2------
D----------------------------------------------|------------------------------------------------------------
A----3-----------------------------------------|-----------------0-1-3-------------------1----------------
E------------------1---------------------------|-----3-----------------------------------------------------
           No need to hurry any…..                …more.

                C                  F                                                   C                F

E----------0--------------1---------------------|----------------0------------1---------------------
B--------1---1---------1---1-------------------|-------------1----1-------1---1-------------------
G------0-------0----2--------2-----------------|----------0-------------2--------2----------------
D------------------------------------------------|-------------------------------------------------------------
A----3-------------------------------------------|-------3------------------------------------------------
E------------------1-----------------------------|----------------------1--------------------------------
          There’s no other place,                                        I’d rather be,

                C                  F                                                                C

E----------0--------------1---------------------|--------------1--------------0-1h-0p-----------1----------
B--------1---1---------1---1-------------------|-----------1--------------1------------1------1------------
G------0-------0----2--------2-----------------|--------2---------------0-------------------0--------------
D------------------------------------------------|------------------------------------------------------------
A----3-------------------------------------------|-----------------0-1-3-------------------1----------------
E------------------1-----------------------------|-----3-----------------------------------------------------
          No other face I’d rather….                        see….. than yours.




E----------1-3-1-----------1-3-1--------------|---------------1-3-1---------1-3-1---------------------
B--------1----------------1---------------------|-------------1--------------1-------------------------
G------2---------------2------------------------|----------2---------------2-------------------------------
D------------------------------------------------|-------------------------------------------------------------
A------------------------------------------------|-------0---------------1----------------------------------
E----1---------------3--------------------------|-------------------------------------------------------
              Hold me,                                                      as only you can do,


            D         C           D         C                             F                

E-----------------------------------------------|------------1-----------------1---------------------
B--------3---------1---------3---------1------|---------1----1-----------1----1---------------
G------2--------0--------2----------0---------|------2---------2------2----------2----------------
D---0-----------------0----------2------------|----3---------------------------------------------------
A------------3---------------------------------|----------------------1---------------------------------
E-----------------------------------------------|-------------------------------------------------------
      And dance me to the end of……..             love,


           D          C           D          C                            F                

E-----------------------------------------------|------------1----------------------------------------
B--------3---------1---------3---------1------|---------1----1--------------------------------------
G------2--------0--------2----------0---------|------2---------2------------------------------------
D---0-----------------0----------2------------|----3---------------------------------------------------
A------------3---------------------------------|-------------------------------------------------------
E-----------------------------------------------|--------------------1-----------------------------------
      Dance me to the end of……..                    love.


                C                  F                                                   C                F

E----------0--------------1---------------------|----------------0------------1---------------------
B--------1---1---------1---1-------------------|-------------1----1-------1---1-------------------
G------0-------0----2--------2-----------------|----------0-------------2--------2----------------
D------------------------------------------------|-------------------------------------------------------------
A----3-------------------------------------------|-------3------------------------------------------------
E------------------1-----------------------------|----------------------1--------------------------------
            I’ll follow you,                                           when you want to lead,

                C                  F                                                               C

E----------0--------------1-------------------|--------------1--------------0-1h-0p-----------1----------
B--------1---1---------1---1-----------------|-----------1--------------1------------1------1---1--------
G------0-------0----2--------2---------------|--------2---------------0-------------------0-------2------
D----------------------------------------------|------------------------------------------------------------
A----3-----------------------------------------|-----------------0-1-3-------------------1----------------
E------------------1---------------------------|-----3-----------------------------------------------------
            You’ll follow me sometimes…            too.

                C                  F                                                   C                F

E----------0--------------1---------------------|----------------0------------1---------------------
B--------1---1---------1---1-------------------|-------------1----1-------1---1-------------------
G------0-------0----2--------2-----------------|----------0-------------2--------2----------------
D------------------------------------------------|-------------------------------------------------------------
A----3-------------------------------------------|-------3------------------------------------------------
E------------------1-----------------------------|----------------------1--------------------------------
           There’s no other body,                                       I’d rather hold,

                C                  F                                                                C
[ Tab from: http://www.guitartabs.cc/tabs/b/bibb_eric/dance_me_to_the_end_of_love_tab.html ]
E----------0--------------1---------------------|--------------1--------------0-1h-0p-----------1----------
B--------1---1---------1---1-------------------|-----------1--------------1------------1------1------------
G------0-------0----2--------2-----------------|--------2---------------0-------------------0--------------
D------------------------------------------------|------------------------------------------------------------
A----3-------------------------------------------|-----------------0-1-3-------------------1----------------
E------------------1-----------------------------|-----3-----------------------------------------------------
          My heart, soul and body’s been waiting on you.


E----------1-3-1-----------1-3-1--------------|---------------1-3-1---------1-3-1---------------------
B--------1----------------1---------------------|-------------1--------------1-------------------------
G------2---------------2------------------------|----------2---------------2-------------------------------
D------------------------------------------------|-------------------------------------------------------------
A------------------------------------------------|-------0---------------1----------------------------------
E----1---------------3--------------------------|-------------------------------------------------------
              So hold me,                                                   as only you can do,


            D         C           D         C                             F                

E-----------------------------------------------|------------1-----------------1---------------------
B--------3---------1---------3---------1------|---------1----1-----------1----1---------------
G------2--------0--------2----------0---------|------2---------2------2----------2----------------
D---0-----------------0----------2------------|----3---------------------------------------------------
A------------3---------------------------------|----------------------1---------------------------------
E-----------------------------------------------|-------------------------------------------------------
    And dance me to the end of……..                love,


           D          C           D          C                            F                

E-----------------------------------------------|------------1----------------------------------------
B--------3---------1---------3---------1------|---------1----1--------------------------------------
G------2--------0--------2----------0---------|------2---------2------------------------------------
D---0-----------------0----------2------------|----3---------------------------------------------------
A------------3---------------------------------|-------------------------------------------------------
E-----------------------------------------------|--------------------1-----------------------------------
     Dance me to the end of……..                      love.


The next four bars are a guitar accompaniment to a piano solo

                C                            F                                                C                                F

E----------0-1h-0p--------------1--------------|-----------0-1h-0p-----------------------------1---------
B-------1-------------1---------1---1-----------|--------1-----------0-1h-0p-----------------1---1------
G----0------------------0----2--------2---------|-----0------------------------0-1h-0p----2--------2----
D------------------------------------------------|------------------------------------------------------------
A--3---------------------------------------------|---3------------------------------------------------------
E---------------------------1---------------------|-----------------------------------------1----------------


                C                  F                                                                C

E----------0--------------1---------------------|--------------1--------------0-1h-0p-----------1----------
B--------1---1---------1---1-------------------|-----------1--------------1------------1------1------------
G------0-------0----2--------2-----------------|--------2---------------0-------------------0--------------
D------------------------------------------------|------------------------------------------------------------
A----3-------------------------------------------|-----------------0-1-3-------------------1----------------
E------------------1-----------------------------|-----3-----------------------------------------------------


               C                  F                                                   C                F

E----------0--------------1---------------------|----------------0------------1---------------------
B--------1---1---------1---1-------------------|-------------1----1-------1---1-------------------
G------0-------0----2--------2-----------------|----------0-------------2--------2----------------
D------------------------------------------------|-------------------------------------------------------------
A----3-------------------------------------------|-------3------------------------------------------------
E------------------1-----------------------------|----------------------1--------------------------------
         There’s no other place,                                          I’d rather be,

                C                  F                                                                C

E----------0--------------1---------------------|--------------1--------------0-1h-0p-----------1----------
B--------1---1---------1---1-------------------|-----------1--------------1------------1------1------------
G------0-------0----2--------2-----------------|--------2---------------0-------------------0--------------
D------------------------------------------------|------------------------------------------------------------
A----3-------------------------------------------|-----------------0-1-3-------------------1----------------
E------------------1-----------------------------|-----3-----------------------------------------------------
            No other face I’d rather….                        see….. than yours.


E----------1-3-1-----------1-3-1--------------|---------------1-3-1---------1-3-1---------------------
B--------1----------------1---------------------|-------------1--------------1-------------------------
G------2---------------2------------------------|----------2---------------2-------------------------------
D------------------------------------------------|-------------------------------------------------------------
A------------------------------------------------|-------0---------------1----------------------------------
E----1---------------3--------------------------|-------------------------------------------------------
              Hold me,                                                      and make life new,


                D          C                                               F                           

E------------------------------------------------|----------------------------------------------------
B------------3---------1------------------------|---------1-----------1-------------------------
G----------2--------0---------------------------|------2------------0------------------------------
D-------0----------------------------------------|--------------------------------------------------------
A---------------3--------------------------------|-----------------1--------------------------------------
E-------------------------------------------------|---1----------------------------------------------------
    And dance me, come                                        dance me,


          D          C           D          C                            F                

E-----------------------------------------------|------------1---------------1-------------------------
B--------3---------1---------3---------1------|---------1----1----------1---1-----------------------
G------2--------0--------2----------0---------|------2---------2------2-------2---------------------
D---0-----------------0----------2------------|----3--------------------------------------------------
A------------3---------------------------------|----------------------1--------------------------------
E-----------------------------------------------|--------------------------------------------------------
     Dance me to the end of……..                      love.

           D          C           D          C                          F                

E-----------------------------------------------|------------1------------1----------1------------------
B--------3---------1---------3---------1------|---------1----1------------1----------1----------------
G------2--------0--------2----------0---------|------2---------2------------2----------2--------------
D---0-----------------0----------2------------|----3---------------------------------------------------
A------------3---------------------------------|-------------------------------------------------------
E-----------------------------------------------|--------------------------------------------------------
     Dance me to the end of……..                     love.



E----1--------1----------1----------------------|-------------------------------------------------------
B------1--------1--------1----------------------|-------------------------------------------------------
G--------2--------2------2----------------------|-------------------------------------------------------
D-------------------------3----------------------|--------------------------------------------------------
A-------------------------3----------------------|-------------------------------------------------------
E-------------------------1----------------------|--------------------------------------------------------
Comments