Beyonce Knowles - Crazy In Love Chords & Tabs

 

Crazy In Love Chords & Tabs

Beyonce Knowles Chords & Tabs

Version: 2 Type: Tab 0 ratings
1 star 2 stars 3 stars 4 stars 5 stars
comments

Crazy In Love Tab

-------------------------------------------------------------------------------
Crazy in Love (arranged for 1 guitar) Beyone Knowles
-------------------------------------------------------------------------------
Tabbed by: Mark P
Email: wdmp51@hotmail.com
www.revolutionofthevoid.tk

Tuning: standard

The Sampled Horn riff (chords under are A# and G)
Make sure you slide gracefully between these

e|---------------------------------------------------------------------------|
B|---------------------------------------------------------------------------|
G|-7-7-7-7-9-10-12-10--------------------------------------------------------|
D|---------------------------------------------------------------------------|
A|-5-5-5-5-7-8--10-8---------------------------------------------------------|
E|---------------------------------------------------------------------------|

Uh oh uh oh (the chord under is F)

e|-----------------------|---------------------------------------------------|
B|-----------------------|---------------------------------------------------|
G|-7---7---7---7---------|-7---7---7---7-------------------------------------|
D|---5---5---5---5-5-5-5-|---5---5---5---5--5-6-5----------------------------|
A|-----------------------|---------------------------------------------------|
E|-----------------------|---------------------------------------------------|

Now here is the cool part to impress your friends with. This is the verse that is right 
Jay-z's rap. Kicks ass with Wah.
[ Tab from: http://www.guitartabs.cc/tabs/b/beyonce_knowles/crazy_in_love_tab_ver_2.html ]
e--------------|----------------|----------------|----------------------|--------------|
b-----10-8~--6-|-8-10--6-8-10-6-|-----10-8-6---6-|-8-10-10-8-8~-10-8----|--------------|
g-7-7----------|----------------|-7-7--------7---|-------------------10-|--------------|
d--------------|----------------|----------------|----------------------|--------------|
a--------------|----------------|----------------|----------------------|--------------|
e--------------|----------------|----------------|----------------------|--------------|

e----------------------|----------------------|----------------------------|-----|
b-13-------------------|-13-13-12-10----------|-10----10----------------10-|-----|
g----14-14-13/12-10-12-|-------------12-10-12-|----12----12-10-12-10-12----|-----|
d----------------------|----------------------|----------------------------|-----|
a----------------------|----------------------|----------------------------|-----|
e----------------------|----------------------|----------------------------|-----|

e-----------------------------|----------------------------|---------------------|
b-10----10-----------------10-|-10----10----------------10-|---------------------|
g----12----12-10-----10h12----|----12----12-10-12-10h12----|---------------------|
d----------------12-----------|----------------------------|---------------------|
a-----------------------------|----------------------------|---------------------|
e-----------------------------|----------------------------|---------------------|

e--------------------------------------------------------------------------------|
b-----------------------13-------------------------------------------------------|
g-12-10----12-10-----14----14-14--14-15-14---------------------------------------|
d-------12-------12~-------------------------------------------------------------|
a--------------------------------------------------------------------------------|
e--------------------------------------------------------------------------------|
Comments