Bextor Sophie Ellis - Murder On The Dancefloor Chords & Tabs

 

Murder On The Dancefloor Chords & Tabs

Bextor Sophie Ellis Chords & Tabs

Version: 1 Type: Tab 0 ratings
1 star 2 stars 3 stars 4 stars 5 stars
comments

Murder On The Dancefloor Tab

   
Song Title: Murder On The Dancefloor
Artist/Band: Sophie Ellis-Bextor
Album: Read My Lips, 2002

Tab by JC Rea(jcrp_21@hotmail.com)

Symbols:

h=hammer-on
/=slide-up

CHORDS FOR VERSE PARTS :

    G#m     Gm  
e|---4---|---3---|
B|---4---|---3---|
G|---4---|---3---|
D|---6---|---5---|
A|---6---|---5---|
E|---4---|---3---|


    F#m     EMaj    
e|---2---|---4---|
B|---2---|---5---|
G|---2---|---4---|
D|---4---|---6---|
A|---4---|---7---|
E|---2---|---0---|

1ST VERSE:

      G#m
Oh, I know I know I know I know I know I know 

G#m Gm   F#m
About your kind 

    G#m
And so and so and so and so and so 

G#m  Gm  F#m       EMaj
I'll have to play 

RIFF:

e|----------------|
B|-----5-7/8h9-5--|
G|-4h6------------|
D|----------------|
A|----------------|
E|----------------|

CHORDS FOR CHORUS PARTS:

    EMaj    BMaj   
e|---0---|---7---|
B|---0---|---7---|
G|---1---|---8---|
D|---2---|---9---|
A|---2---|---9---|
E|---0---|---7---|

    F#m     AMaj
e|---2---|---5---|
B|---2---|---5---|
G|---2---|---6---|
D|---4---|---7---|
A|---4---|---7---|
E|---2---|---5---|

CHORUS:

EMaj      BMaj                 F#m
    If you think you're getting away 

AMaj
    I will prove you wrong 

EMaj     BMaj            F#m
    I'll take you all the way 

AMaj
    Boy, just come along 

EMaj     BMaj      F#m  AMaj
    Hear me when I say 


Hey, It's murder on the dancefloor 
But you better not kill the groove 
It's murder on the dancefloor 
But you better not steal the moves 
Dj, gonna burn this goddamn house right down(THE SAME CHORDS AND RYTHM THAN VERSE PARTS)  

SECOND VERSE:

Oh I know I know I know I know I know I know 
About your kind 
And so and so and so and so and so and so 
You'll just have to pray 

RIFF(After second verse):

e|----------------|
B|-----5-7/8h9-5--|
G|-4h6------------|
D|----------------|
A|----------------|
E|----------------|

CHORUS:

Don't think you'll get away 
I will prove you wrong 
I'll lead you all astray 
Stay another song 
I'll blow you all away 

Hey, It's murder on the dancefloor 
But you better not kill the groove 
Murder on the dancefloor 
But you better not steal the moves 
DJ, gonna turn this house around somehow 

Murder on the dancefloor 
But you better not kill the groove 
Hey, hey 
Murder on the dancefloor 
But you better not steal the moves 
Dj, gonna burn this goddamn house right down


SOLO:

e|--------------------------------------------|
B|-------2-4----------------------------------|
G|-1h3/4-----4--------------------------------|
D|-------------6-4-6-4--4/6-6--4-6--6-6--5-5--|
A|--------------------------------------------|
E|--------------------------------------------|

[ Tab from: http://www.guitartabs.cc/tabs/b/bextor_sophie_ellis/murder_on_the_dancefloor_tab.html ]
e|-----------------------------------------------|
B|-------------------2-------2-------2--------2--|
G|-------1-2h4---2h4-----2h4-----2h4------2h4----|
D|-4-2-4-----------------------------------------|
A|-----------------------------------------------|
E|-----------------------------------------------|


e|-------------------2---2----|
B|-------2-4------4----4---4--|
G|-1h3/4-----4----4-----------|
D|-------------6--------------|
A|----------------------------|
E|----------------------------|


e|----------------------7-4--4/7-7-7--7/11--14-11--|-----------------|
B|-------------5----5/9----------------------------|-----5-7/8h9-5---|
G|-----2-4-4/6---6---------------------------------|-4h6-------------|
D|-2h4---------------------------------------------|-----------------|
A|-------------------------------------------------|-----------------|
E|-------------------------------------------------|-----------------|

CHORUS:

Don't think you'll get away 
I will prove you wrong 
I'll take you all the way 
Boy, just come along
Hear me when I say 


Murder on the dancefloor 
But you better not kill the groove  
e|----------------------7-4--4/7-7-7--7/11--14-11--|-----------------|
B|-------------5----5/9----------------------------|-----5-7/8h9-5---|
G|-----2-4-4/6---6---------------------------------|-4h6-------------|
D|-2h4---------------------------------------------|-----------------|
A|-------------------------------------------------|-----------------|
E|-------------------------------------------------|-----------------|
Murder on the dancefloor 
But you better not steal the moves 
Dj, gonna burn this goddamn house right down


Murder on the dancefloor 
But you better not kill the groove
Murder on the dancefloor 
But you better not steal the moves 
Dj, gonna burn this goddamn house right down

e|----------------------7-4--4/7-7-7--7/11--14-11--|-----------------|
B|-------------5----5/9----------------------------|-----5-7/8h9-5---|
G|-----2-4-4/6---6---------------------------------|-4h6-------------|
D|-2h4---------------------------------------------|-----------------|
A|-------------------------------------------------|-----------------|
E|-------------------------------------------------|-----------------|

Murder on the dancefloor 
But you better not kill the groove
Murder on the dancefloor 
But you better not steal the moves 
Dj, gonna burn this goddamn house right down

e|----------------------7-4--4/7-7-7--7/11--14-11--|-----------------|
B|-------------5----5/9----------------------------|-----5-7/8h9-5---|
G|-----2-4-4/6---6---------------------------------|-4h6-------------|
D|-2h4---------------------------------------------|-----------------|
A|-------------------------------------------------|-----------------|
E|-------------------------------------------------|-----------------|

Murder on the dancefloor 
But you better not kill the groove
Murder on the dancefloor 
But you better not steal the moves 
Dj, gonna burn this goddamn house right down

e|----------------|
B|-----5-7/8h9-5--|
G|-4h6------------|
D|----------------|
A|----------------|
E|----------------|. . .END


Comments: jcrp_21@hotmail.com
Comments