Bewitched - Hard As Steel Chords & Tabs

 

Hard As Steel Chords & Tabs

Bewitched Chords & Tabs

Version: 1 Type: Tab 0 ratings
1 star 2 stars 3 stars 4 stars 5 stars
comments

Hard As Steel Tab

   
                      BEWITCHED - HARD AS STEEL (HOT AS HELL)
                     From the Album DIABOLICAL DESECRATION
              Copyright 1996 OSMOSE PRODUCTIONS
                     Version 1.0 - (JAN - 2001)

Transcribed by: REAPER

For Questions, Comments, Newest Version, or Corrections contact
bathory@huk.k64.dk

Check Out Death Warp, With More Transcriptions On It:
 http://tiger.towson.edu/~dalvis1

..  - palm mute          /  - slide up to
 \  - slide down to      ~  - vibrato
 h  - hammer on          b  - bend
 p  - pull off            Suffixes for bend
                          ph - pinch harmonic
                           f - full bend    h - half bend
*  - see comment           r - release      t - tap bend
X  - percussion mute       ~ - vibrato bend
@  - slight palm mute     () - ghost note, sustained note

Tune Gtr to E



Riff A
|--------------------------------------------------------------------|
|--------------------------------------------------------------------|
|--------------------------------------------------------------------|Gtr 
|--------------------------------------------------------------------| I
|--------------------------------------------------------------------|
|--------------------------------------------------------------------|
|                                                                    |
|--------------------------------------------------------------------|
|--------------------------------------------------------------------|
|--With Flanger------------------------------------------------------|Gtr 
|--------------------------------------------------------------------| II
|--0-0-0-0-0-0-0-0-0-0-0-0-0-0-0-0-0-0-0-0-0-0-0-0-0-0-0-0-0-0-0-0-0-|
|--------------------------------------------------------------------|
[ Tab from: http://www.guitartabs.cc/tabs/b/bewitched/hard_as_steel_tab.html ]
Riff B
|--------------------------------------------------------------------|
|--------------------------------------------------------------------|
|-10----9------10-----9------7------10----9------10-----9------------|Gtr
|-8-----7------8------7------5------8-----7------8------7-9--10------| I
|--0-0-0--0-0-0--0-0-0--0-0-0--0-0-0-0-0-0--0-0-0--0-0-0--7--8-------|
|--------------------------------------------------------------------|
 
Riff C                                                                   
|--------------------------------------------------------------------|
|--------------------------------------------------------------------|
|--------------------------------------------------------------------|Gtr 
|--------------------------------------------------------------------| I+II
|-7------------5-7-----10---9---5-7-----5-7------5-7-end with-3-5----|
|--000-000-000-----000----0---0-----000----000-7---------------------|

Riff D
|--------------------------------------------------------------------|
|--------------------------------------------------------------------|
|-----5-----5-----5-----5--7b-----5-----5-----5-----5-7-7------------|Gtr
|-----5-----5-----5-----5--7b-----5-----5-----5-----5-7-7------------| I+II
|-0-0---0-0---0-0---0-0-------0-0---0-0---0-0---0-0---5-5------------|
|--------------------------------------------------------------------|

Riff E
|--------------------------------------------------------------------|
|--------------------------------------------------------------------|
|---------------------5--5-------------------------------------------|
|-10-10-x-x-5-5--7----5--5-x-x-5-5--2--------------------------------|
|-10-10-x-x-5-5--7----3--3-x-x-5-5--2--end with-5-5-5-5-2-2-2-2------|
|-8--8--x-x-3-3--5---------x-x-3-3--0-----------3-3-3-3-0-0-0-0------|

Riff F
|--------------------------------------------------------------------|
|--------------------------------------------------------------------|
|-------------------------------------------------------5-5----------|
|-------------------------------------------------------5-5----------|
|-2-2-2-2-----------5-5-5-5--5-4---2-2-2-2---------4-4--3-3----------|
|-0-0-0-0--0-3p2p0--3-3-3-3--3-2---0-0-0-0-0p3p2p0-2-2---------------|

Riff G
|--------------------------------------------------------------------|
|--------------------------------------------------------------------|
|9-------------8------------9----------------------------------------|
|9--8----------8-7----------9-8--------------------------------------|
|7--8-7-7-7-7--6-7-6-6-6-6--7-8-7-7-7-7-7-7-7-7----------------------|
|---6-5-5-5-5----5-4-4-4-4----6-5-5-5-5-5-5-5-5----------------------|

Riff H
|--------------------------------------------------------------------|
|--------------------------------------------------------------------|
|--------------------------------------------------------------------|
|--------------------------------------------------------------------|
|-5-5--7-------------------------------------------------------------|
|--------------------------------------------------------------------|
Comments