Between The Buried And Me - Selkies The Endless Obsession Chords & Tabs

 

Selkies The Endless Obsession Chords & Tabs

Between The Buried And Me Chords & Tabs

Version: 1 Type: Tab 0 ratings
1 star 2 stars 3 stars 4 stars 5 stars
comments

Selkies The Endless Obsession Tab

Selkies The Endless Obsession
Between the Buried and Me
Alaska
Clean Solo
Standard EADGBE Tuning

--------------------------|
--------------------------|
--------9-----9-11--------|
-9-11---11----------------|
--------------------------|
--------------------------|

----------------------------------------------------|
-9-10-9---------------------------------------------|
-----------9---------------9-/11--------------------|
--------------(11)-/9-/7---------(11)-/9-/7---------|
----------------------------------------------------|
----------------------------------------------------|

------------------------------------------------------------------|
-----------9-10-9-------------------------------------------------|
----9-11-----------11-9-----------------------------11------------|
-9--------------------------12-11-9---------9-11------------------|
----------------------------------------11-12---------------------|
------------------------------------------------------------------|
                                           v RAKE v
----------------------------------------------------------------------|
----------------------------------------------------------------------|
-11-/13-13-/14-9-9-11----------9--------------------------------------|
-----------------------------------11----12--11-----------------------|
-------------------------------12------------------12--7-7-9----------|
----------------------------------------------------------------------|
[ Tab from: http://www.guitartabs.cc/tabs/b/between_the_buried_and_me/selkies_the_endless_obsession_tab.html ]
----------------------------------------------------------------------------------------------------|
----------------------------------------------------------------------------------------------------|
--------------------------------------14-14-16-17-16-14-----14-(11)-/13-----------------------------|
-----------------------------14-16----------------------------16-----------------14-----------------|
---------------12-14-/16--------------------------------------------------------------14-----14-16--|
-10-12-/14--------------------------------------------------------------------------------14--------|

----------------------------------------------------------|
-17^-17^-14^--------------14------------------------------|
-------------------16-14-16-----14-----13-13--------------|
-----------------------------------------16---------------|
----------------------------------------------------------|
----------------------------------------------------------|

----------------------------------------------------------|
----------------------------------------------------------|
-------------9-----11-9-13--------------------------------|
-9-12-11----12------------9-11-9--------------------------|
-----------------------------------------11-9-------------|
------------------------------------------------12--------|

---------------------------------------------|
---------------------------------------------|
---------------------------------------------|
---------------------------------------------|
------------------------------4-7-(2)-/4-----|
-7-9-7-/5-0-2-5-2-5-/7-----------------------|

(Under Piano)
------------------|
------------------|
------------------|
------------------|
-7----------9-----|
----(9)-/10-------|

---------------------------------------------------|
---------------------------------------------------|
-----------------9-11-------------7-6--------------|
------7-9-/11--------11-9-7-9------7-/9------------|
-7-9-----------------------------------------------|
---------------------------------------------------|
Comments