Between The Buried And Me - Laser Speed Chords & Tabs

 

Laser Speed Chords & Tabs

Between The Buried And Me Chords & Tabs

Version: 2 Type: Tab

Laser Speed Tab

This is almost all of the intro....
Standard Tuning as well

--------2-------------0----4--5-3h5p3p0-------------------------------------|
-2-h3-----3-------0----------------------3-------0------2-3-5----------0----|
------2-----2---2---2---2--------------------0-----2---------------0h2------|
------------------------------0------------4---------0---------0h2----------|
-2--------------4------------------------2--------------0-2-3---------------|
-------------------------------------------------3--------------------------|
[ Tab from: http://www.guitartabs.cc/tabs/b/between_the_buried_and_me/laser_speed_tab_ver_2.html ]
-3--2h3p2--------------------------------------------------------8----8h10---|
--------3------0h1----3-5-8---7---6-----8-----10------12-----------8------8--|
------------0-----------------5-----5-----5------8------10----------9------9-|
--------------0---------------7------7-----5-------10------10----10----------|
-2---------------0----2-3-7---6---5-----7------8------10---------------------|
-----------------------------------------------------------------------------|


--------8h10----8--------------------8--4-------4h6-4--------3--------------|
---8---------8----8---8h10-8-------8----4-----4-------4----2--2-------------|
--9-9-9-------9----9--------9----9------5----5------------3-3---------------|
-9---9----------8--------------7--------6---6------------5------------------|
----------------------------------------------------------------------------|
----------------------------------------------------------------------------|