Between The Buried And Me - Arsonist Chords & Tabs

 

Arsonist Chords & Tabs

Between The Buried And Me Chords & Tabs

Version: 2 Type: Tab 0 ratings
1 star 2 stars 3 stars 4 stars 5 stars
comments

Arsonist Tab

THIS IS PLAYED IN DROP D TUNING BUT IF YOUR LAZY U CAN JUST START ON 5

[ Tab from: http://www.guitartabs.cc/tabs/b/between_the_buried_and_me/arsonist_tab_ver_2.html ]
E|---------------------------------------|
B|---------------------------------------|
G|---------------------------------------|
D|----------7----------9---7-------------|
A|-7---10-9---6-7-9-10----------9--------|
E|---7-------------------8---10----------|

E|--------------------------------|
B|--------------------------------|
G|--------------------------------|
D|----------7---------------------|
A|-7---10-9---6-7-9-10-6-7--------|
E|---7----------------------------|

IVE SEEN ALOT OF TABS 4 THIS SONG AND THEY ALL SOUND LIKE SHIT COMPARED TO THIS 1 THAT 
FRIEND FIGURED OUT
Comments