Between The Buried And Me - Alaska Chords & Tabs

 

Alaska Chords & Tabs

Between The Buried And Me Chords & Tabs

Version: 1 Type: Tab

Alaska Tab

Itís C# tuning

Intro
|-----------14h17p14----|-----------16-19-16-17-------|-----------------22-21-19--------|
|----------14------15---|---------17-----------19-----|---------17-19-21--------22-21-19|
|---------15--------14--|-------16---------------18---|-16-18-19------------------------|
|-------16------------16|12/1418-------------------19-|---------------------------------|
|-----16----------------|-----------------------------|---------------------------------|
|14-17------------------|-----------------------------|---------------------------------|
[ Tab from: http://www.guitartabs.cc/tabs/b/between_the_buried_and_me/alaska_tab.html ]
|---------------------------------||--------------|--------14h17p14-----------|
|-18-19-21-19-18------------------||--------------|------14--------14---------|
|---------------19-18-------------||-----------14-|----15------------15-------|
|--------------------19-21-18-----||-----11-------|--16----------------16-----|
|----------------------------20-21||-9------------|16--------------------16---|
|---------------------------------||--------------|------------------------17-|

|-------------------|--------12-11-8-9-8--|--------------------|--11-12-11------7-11/14|
|-------------------|10-9---9-----------9-|----9-10-9---12-/14-|---------------9-------|
|---------------9-10|-----9--------------8|---9-------9--------|-9---------11-9--------|
|---------10--------|---------------------|-11-----------------|-----------------------|
|------11---11-11---|---------------------|--------------------|-------(repeat-2nd-time|
|-9-9-9--9----------|---------------------|--------------------|---------end-on-this)--|

|----------------------|---11-12-11----------7-11-14/--(repeat)-----||
|------9-10-9---12-/14-|------------------9--------------as many----||
|----9--------9--------|--9---------11-9------------------times as--||
|-11-------------------|-----------------------------------needed)--||
|----------------------|--------------------------------------------||
|----------------------|--------------------------------------------||