Betty Blowtorch - Teenage Whore Chords & Tabs

 

Teenage Whore Chords & Tabs

Betty Blowtorch Chords & Tabs

Version: 1 Type: Tab

Teenage Whore Tab

---------------------------------------------------------------------------
Teenage Whore (Hole Cover) - Betty Blowtorch - (From the album "Last Call")
---------------------------------------------------------------------------

d|-----------|
a|-----------|
f|-----------|
c|--4--7--5--|
g|--4--7--5--|
C|--4--7--5--| Verse

d|-------------|
a|-------------|
f|--10---------|
c|--10--11--9--|
g|---8--11--9--|
C|------11--9--| Chorus


OR
[ Tab from: http://www.guitartabs.cc/tabs/b/betty_blowtorch/teenage_whore_tab.html ]
---------------------------------------------------------------------------
Teenage Whore (Hole Cover) - Betty Blowtorch - (From the album "Last Call")
---------------------------------------------------------------------------

Verse
e|-----------------|
b|-----------------|
g|-----------------|
d|--2--5--3--5--3--|
a|--2--5--3--5--3--|
E|--0--3--1--3--1--|

Chorus
e|-----------|
b|-----------|
g|--8--------|
d|--8--9--7--|
a|--6--9--7--|
E|-----7--5--|