Better Than Ezra - Rosealia Chords & Tabs

 

Rosealia Chords & Tabs

Better Than Ezra Chords & Tabs

Version: 1 Type: Bass Tab 0 ratings
1 star 2 stars 3 stars 4 stars 5 stars
comments

Rosealia Bass Tab

"Rosealia" by Better Than Ezra

Verse
G------------------------------------------------------------------------------------------------------------------------
D------------------------------------------------------------------------------------------------------------------------
A-----------------3-3---2---0---0-0----2---3-3----2---0---------------------------------------------------------------
E------3--3-3------------------------------------------------------------------------------------------------------------


Riff
G------------------------------------------------------------------------------------------------------------------------
D------------------------------------------------------------------------------------------------------------------------
A------1--0----------------------------------------1--0-----------------------------------------------------------------
E--------------3--1--3--1-1---3-3-3-3-3-3-3-----------3--1--3--1-1--------------------------------------------------

[ Tab from: http://www.guitartabs.cc/tabs/b/better_than_ezra/rosealia_btab.html ]
Chorus
G------------------------------------------------------------------------------------------------------------------------
D------------------------------------------------------------------------------------------------------------------------
A------3-3-3----2-2-2----0-0-0----2-2-2----3-3-3----2-2-2----0-0-0----2-2-2--------------------------------------
E-----------------------------------------------------------------------------------------------------------------------3
							           Play this note the very last time


Outro
G------------------------------------------------------------------------------------------------------------------------
D------------------------------------------------------------------------------------------------------------------------
A---------3--5--0--3--5-------------------------------------------------------------------------------------------------
E------3-----------------------------------------------------------------------------------------------------------------


Verse	(8.5x)
Riff 	(1x)
Chorus	(1x)
Verse	(8.5x)
Riff	(1x)
Chorus	(2.25x)
Verse	(4x)
Riff	(1x)
Chorus	(3X) - on the last two times, the rhythm isn't the same but the notes are (its real easy to figure it out)
Outro	(til end)
Comments