Better Than Ezra - Good Chords & Tabs

 

Good Chords & Tabs

Better Than Ezra Chords & Tabs

Version: 6 Type: Tab 0 ratings
1 star 2 stars 3 stars 4 stars 5 stars
comments

Good Tab

   
    G     D    Em     C

e---3-----2-----0-----0-|
B---0-----3-----0-----1-|
G---0-----2-----0-----0-|
D---0-----0-----2-----2-|
A---2-----x-----2-----3-|
E---3-----x-----0-----x-|   (This is played through into and chorus.)


----------------------------------------------------------------

(The verse is all bass and drums, except for a few times when the electric hits off a chord.)

Bass tab for verses and chorus is as follows:

G-----------------------------------|
D-----------------------------------|
A-----------5-5-5-5---------3-3-3-2-|
E---3-3-3-3---------0-0-0-0---------|

----------------------------------------------------------------

Guitar and Bass Tab for Bridge:

    A2    E     F#    D
[ Tab from: http://www.guitartabs.cc/tabs/b/better_than_ezra/good_tab_ver_6.html ]
e---0-----0-----x-----2-|
B---2-----0-----x-----3-|
G---2-----1-----x-----2-|
D---0-----2-----4-----0-|
A---0-----2-----4-----x-|
E---0-----0-----2-----x-|


G--------------------------------------|
D--------------------------------------|
A------------------------------5-5-5-5-|
E---5-5-5-5--2-2-2-2--0-0-0-0----------|

----------------------------------------------------------------

(In the second verse, electric does a small little thing in the first part of the verse. 
to the song to get the timing right.)

e----------------------------|
B----------------------------|
G----------------------------|
D---9h10--9--------9h10-9h10-|
A------------10-10-----------|
E----------------------------|

---------------------------------------------------------------

As for the solo, you're outta luck if you've come here, so, sorry.

Bye, and have fun.
Comments