Better Than Ezra - Good Chords & Tabs

 

Good Chords & Tabs

Better Than Ezra Chords & Tabs

Version: 2 Type: Tab 1 rating
1 star 2 stars 3 stars 4 stars 5 stars
comments

Good Tab

                                     Better Than Ezra - Good                                       
Tabbed by Luke Benson sawkursyco@hotmail.com

Track 1
                                                         
E||--------------------------|--------------------------|
B||--------------------------|--------------------------|
G||--------------7--7--7--7--|--------------5--5--5--4--|
D||--5--5--5--5--7--7--7--7--|--2--2--2--2--5--5--5--4--|
A||--5--5--5--5--5--5--5--5--|--2--2--2--2--3--3--3--2--|
E||--3--3--3--3--------------|--0--0--0--0--------------|


                                                                           
--------------------------|--------------------------|------|------|------|
--------------------------|--------------------------|------|------|------|
--------------7--7--7--7--|--------------5--5--5--4--|------|------|------|
--5--5--5--5--7--7--7--7--|--2--2--2--2--5--5--5--4--|------|------|------|
--5--5--5--5--5--5--5--5--|--2--2--2--2--3--3--3--2--|------|------|------|
--3--3--3--3--------------|--0--0--0--0--------------|------|------|------|


                                                                          
----------------------|------|------|------|----------------------|------|
----------------------|------|------|------|----------------------|------|
--------0h-5--5--5----|------|------|------|--------0h-5--5--5----|------|
--------0h-5--5--5----|------|------|------|--------0h-5--5--5----|------|
--------0h-3--3--3----|------|------|------|--------0h-3--3--3----|------|
----------------------|------|------|------|----------------------|------|


                                                             
------|--------------------------|--------------------------|
------|--------------------------|--------------------------|
------|--------------7--7--7--7--|--------------5--5--5--4--|
------|--5--5--5--5--7--7--7--7--|--2--2--2--2--5--5--5--4--|
------|--5--5--5--5--5--5--5--5--|--2--2--2--2--3--3--3--2--|
------|--3--3--3--3--------------|--0--0--0--0--------------|


                                                                           
--------------------------|--------------------------|------|------|------|
--------------------------|--------------------------|------|------|------|
--------------7--7--7--7--|--------------5--5--5--4--|------|------|------|
--5--5--5--5--7--7--7--7--|--2--2--2--2--5--5--5--4--|------|------|------|
--5--5--5--5--5--5--5--5--|--2--2--2--2--3--3--3--2--|------|------|------|
--3--3--3--3--------------|--0--0--0--0--------------|------|------|------|


                                                                
----------------------|------|------|--------------------------|
----------------------|------|------|--------------------------|
--------0h-5--5--5----|------|------|--------------7--7--7--7--|
--------0h-5--5--5----|------|------|--5--5--5--5--7--7--7--7--|
--------0h-3--3--3----|------|------|--5--5--5--5--5--5--5--5--|
----------------------|------|------|--3--3--3--3--------------|


                                                      
--------------------------|--------------------------|
--------------------------|--------------------------|
--------------5--5--5--4--|--------------7--7--7--7--|
--2--2--2--2--5--5--5--4--|--5--5--5--5--7--7--7--7--|
--2--2--2--2--3--3--3--2--|--5--5--5--5--5--5--5--5--|
--0--0--0--0--------------|--3--3--3--3--------------|


                                                      
--------------------------|--------------------------|
--------------------------|--------------------------|
--------------5--5--5--4--|--------------7--7--7--7--|
--2--2--2--2--5--5--5--4--|--5--5--5--5--7--7--7--7--|
--2--2--2--2--3--3--3--2--|--5--5--5--5--5--5--5--5--|
--0--0--0--0--------------|--3--3--3--3--------------|


                                                      
--------------------------|--------------------------|
--------------------------|--------------------------|
--------------5--5--5--4--|--------------7--7--7--7--|
--2--2--2--2--5--5--5--4--|--5--5--5--5--7--7--7--7--|
--2--2--2--2--3--3--3--2--|--5--5--5--5--5--5--5--5--|
--0--0--0--0--------------|--3--3--3--3--------------|


                                                                     
--------------------------|--3--------3--------|--3--------3--------|
--------------------------|--5--------3--------|--1--------3--------|
--------------5--5--5--4--|--------------------|--------------------|
--2--2--2--2--5--5--5--4--|--------------------|--------------------|
--2--2--2--2--3--3--3--2--|--------------------|--------------------|
--0--0--0--0--------------|--------------------|--------------------|


                                                                    
--3--------3--------|--3--------3-------3--|-----------------------|
--5--------3--------|--1--------3----1-----|-----------3--4--3-----|
--------------------|----------------------|--------3-----------3--|
--------------------|----------------------|-----------------------|
--------------------|----------------------|-----------------------|
--------------------|----------------------|-----------------------|


                                                                         
-----------------------|--3---------------------|-----------------------|
----------3-----3------|--1---------3--4--3-----|----------3-----3------|
----3--5-----5---------|---------3-----------3--|----3--5-----5---------|
-----------------------|------------------------|-----------------------|
-----------------------|------------------------|-----------------------|
-----------------------|------------------------|-----------------------|

[ Tab from: http://www.guitartabs.cc/tabs/b/better_than_ezra/good_tab_ver_2.html ]
                                                                          
--3---------------------|-----------------------|--3---------------------|
--1---------3--4--3-----|----------3-----3------|--1---------3--4--3-----|
---------3-----------3--|----3--5-----5---------|---------3-----------3--|
------------------------|-----------------------|------------------------|
------------------------|-----------------------|------------------------|
------------------------|-----------------------|------------------------|


                                                                   
-----------------------|--------------------|---------------------|
----------3-----3------|--------------------|---------------------|
----3--5-----5---------|---------------7----|---------------5--4--|
-----------------------|------5--------7----|------2--------5--4--|
-----------------------|------5--------5----|------2--------3--2--|
-----------------------|------3-------------|------0--------------|


                                                                
--------------------|---------------------|--------------------|
--------------------|---------------------|--------------------|
---------------7----|---------------5--4--|---------------7----|
------5--------7----|------2--------5--4--|------5--------7----|
------5--------5----|------2--------3--2--|------5--------5----|
------3-------------|------0--------------|------3-------------|


                                                                 
---------------------|--------------------|---------------------|
---------------------|--------------------|---------------------|
---------------5--4--|---------------7----|---------------5--4--|
------2--------5--4--|------5--------7----|------2--------5--4--|
------2--------3--2--|------5--------5----|------2--------3--2--|
------0--------------|------3-------------|------0--------------|


                                                      
--------------------------|--------------------------|
--------------------------|--------------------------|
--------------7--7--7--7--|--------------5--5--5--4--|
--5--5--5--5--7--7--7--7--|--2--2--2--2--5--5--5--4--|
--5--5--5--5--5--5--5--5--|--2--2--2--2--3--3--3--2--|
--3--3--3--3--------------|--0--0--0--0--------------|


                                                      
--------------------------|--------------------------|
--------------------------|--------------------------|
--------------7--7--7--7--|--------------5--5--5--4--|
--5--5--5--5--7--7--7--7--|--2--2--2--2--5--5--5--4--|
--5--5--5--5--5--5--5--5--|--2--2--2--2--3--3--3--2--|
--3--3--3--3--------------|--0--0--0--0--------------|


                                                      
--------------------------|--------------------------|
--------------------------|--------------------------|
--------------7--7--7--7--|--------------5--5--5--4--|
--5--5--5--5--7--7--7--7--|--2--2--2--2--5--5--5--4--|
--5--5--5--5--5--5--5--5--|--2--2--2--2--3--3--3--2--|
--3--3--3--3--------------|--0--0--0--0--------------|


                                                      
--------------------------|--------------------------|
--------------------------|--------------------------|
--------------7--7--7--7--|--------------5--5--5--4--|
--5--5--5--5--7--7--7--7--|--2--2--2--2--5--5--5--4--|
--5--5--5--5--5--5--5--5--|--2--2--2--2--3--3--3--2--|
--3--3--3--3--------------|--0--0--0--0--------------|


                                                      
--------------------------|--------------------------|
--------------------------|--------------------------|
--------------9--9--9--9--|--------------7--7--7--6--|
--7--7--7--7--9--9--9--9--|--4--4--4--4--7--7--7--6--|
--7--7--7--7--7--7--7--7--|--4--4--4--4--5--5--5--4--|
--5--5--5--5--------------|--2--2--2--2--------------|


                                                      
--------------------------|--------------------------|
--------------------------|--------------------------|
--------------9--9--9--9--|--------------7--7--7--6--|
--7--7--7--7--9--9--9--9--|--4--4--4--4--7--7--7--6--|
--7--7--7--7--7--7--7--7--|--4--4--4--4--5--5--5--4--|
--5--5--5--5--------------|--2--2--2--2--------------|


                                                      
--------------------------|--------------------------|
--------------------------|--------------------------|
--------------9--9--9--9--|--------------7--7--7--6--|
--7--7--7--7--9--9--9--9--|--4--4--4--4--7--7--7--6--|
--7--7--7--7--7--7--7--7--|--4--4--4--4--5--5--5--4--|
--5--5--5--5--------------|--2--2--2--2--------------|


                                                      
--------------------------|--------------------------|
--------------------------|--------------------------|
--------------9--9--9--9--|--------------7--7--7--6--|
--7--7--7--7--9--9--9--9--|--4--4--4--4--7--7--7--6--|
--7--7--7--7--7--7--7--7--|--4--4--4--4--5--5--5--4--|
--5--5--5--5--------------|--2--2--2--2--------------|


                                                      
--------------------------|--------------------------|
--------------------------|--------------------------|
--------------7--7--7--7--|--------------5--5--5--4--|
--5--5--5--5--7--7--7--7--|--2--2--2--2--5--5--5--4--|
--5--5--5--5--5--5--5--5--|--2--2--2--2--3--3--3--2--|
--3--3--3--3--------------|--0--0--0--0--------------|


                                                      
--------------------------|--------------------------|
--------------------------|--------------------------|
--------------7--7--7--7--|--------------5--5--5--4--|
--5--5--5--5--7--7--7--7--|--2--2--2--2--5--5--5--4--|
--5--5--5--5--5--5--5--5--|--2--2--2--2--3--3--3--2--|
--3--3--3--3--------------|--0--0--0--0--------------|


                                                      
--------------------------|--------------------------|
--------------------------|--------------------------|
--------------7--7--7--7--|--------------5--5--5--4--|
--5--5--5--5--7--7--7--7--|--2--2--2--2--5--5--5--4--|
--5--5--5--5--5--5--5--5--|--2--2--2--2--3--3--3--2--|
--3--3--3--3--------------|--0--0--0--0--------------|


                                                                           
--------------------------|--------------------------|-------------------||
--------------------------|--------------------------|-------------------||
--------------7--7--7--7--|--------------5--5--5--4--|-------------------||
--5--5--5--5--7--7--7--7--|--2--2--2--2--5--5--5--4--|--5----------------||
--5--5--5--5--5--5--5--5--|--2--2--2--2--3--3--3--2--|--5----------------||
--3--3--3--3--------------|--0--0--0--0--------------|--3----------------||


Comments