Better Than Ezra - Good Solo Chords & Tabs

 

Good Solo Chords & Tabs

Better Than Ezra Chords & Tabs

Version: 1 Type: Tab 0 ratings
1 star 2 stars 3 stars 4 stars 5 stars
comments

Good Solo Tab

Beter Than Ezra - Good

Bridge Solo

goes with the other Good tab

tabbed by - Luke Benson
the solo is close

|--------------------------|
|--8/-9--9--9--9/-9--9--9--|
|--------------------------|
|--------------------------|
|--------------------------|
|--------------------------|

                                                      
--------------------------|--------------------------|
--------------------------|--------------------------|
--9--9--9--9--9--9--9--9--|--9--9--9--9--9--9--9--9--|
--------------------------|--------------------------|
--------------------------|--------------------------|
--------------------------|--------------------------|

[ Tab from: http://www.guitartabs.cc/tabs/b/better_than_ezra/good_solo_tab.html ]
                                                            
--------------------------|--------------------------------|
--------------------------|--9/-10--10--10--9/-10--10--10--|
--9--9--9--7--9r-7-----7--|--------------------------------|
--------------------9-----|--------------------------------|
--------------------------|--------------------------------|
--------------------------|--------------------------------|


                                                                  
--------------------------------|--------------------------------|
--9/-10--10--9/-10--10--10--10--|--9/-10--10--9/-10--10--10--10--|
--------------------------------|--------------------------------|
--------------------------------|--------------------------------|
--------------------------------|--------------------------------|
--------------------------------|--------------------------------|


                                                                                
--9---------------------------|
-----10--10--10--9/-10--9--7--|
------------------------------|
------------------------------|
------------------------------|
------------------------------|
Comments