Better Than Ezra - At The Stars Chords & Tabs

 

At The Stars Chords & Tabs

Better Than Ezra Chords & Tabs

Version: 1 Type: Bass Tab 0 ratings
1 star 2 stars 3 stars 4 stars 5 stars
comments

At The Stars Bass Tab

   
  BTAB: At The Stars
Artist: Better Than Ezra
 Album: How Does Your Garden Grow?
Author: Rattman (jratt0@hotmail.com)

**Padrino's Bass Tab Exclusive!**

Intro:                      "Anywhere..."
G-------------------------|-------
D-------------------------|-------
A-16-16-16-16-19-19-19-19-|----0~-
E-------------------------|-2~----

Verse:
G---------------------------
D---------------------------
A---------------2-2---------
E-2-4-2-4-2-4-2-----0-0-0-0-

"Please Don't..."
G--------------
D--------------
A--------------
E-2-2-2-2-4-5~-
[ Tab from: http://www.guitartabs.cc/tabs/b/better_than_ezra/at_the_stars_btab.html ]
Chorus:
           x 3             
G---------------------------|---------------------------
D---------------------------|---------------------------
A-0-0-0-0-------------------|---------------------------
E---------0-0-0-0-2-2-2-2-2-|--2-2-2-2-2-2-4-4-5-5-5/7~-

Bridge:
G------------------
D------------------
A-5-5-4-4-4--------
E-----------0-0-0~-

"..loves you..."
G---------------------------
D---------------------------
A----------------[to verse]-
E-2-2-4-4-5-7/--------------

Taken from Padrino's Bass Tab Archive: http://members.xoom.com/jszalma/

Comments